Song name
# A B C D E F G H I J K L M N O P Q R S T U V W X Y Z

Anna Hanski - Tule Poika Uimaan chords

Highlighted       Show chord diagrams
Anna Hanski - Tule poika uimaan
http://www.annahanski.fi/

Original: Sofia Rotaru - Bylo no proshlo


Intro:
cm A# G7 
cm A# G7


cm
Nain - sut pitkasta aikaa - poltti hiekka
         A#               cm
jalkojen alla - tuttu uimaranta

Oisin tahtonut juosta - syliis kohta
              A#    G7             cm
mut taynna on ranta - me katseiden alla
fm                        cm
Katsoit sa mua - toisella lailla
fm                        cm
muuttunut niin - paivista noista
fm                        cm
Rohkeesti vaan - tarjosit mulle
           A#                  G7
pitsaa paperista - ma soin sun sormista


Chorus:
                 cm           G#    G7    cm
Tule, tule poika uimaan kahlaamaan
                 cm           G#    G7    cm
Tule, tule poika uimaan kahlaamaan
                 cm           G#    G7    cm
Tule, tule poika uimaan kahlaamaan
                 cm           G#    G7    cm
Tule, tule poika uimaan kahlaamaan
fm                         G7
viela, viela, viela - kauemmas 


(short guitar solo) cm A# G7 


cm
Sain - hyvailla sua - pinnan alla
        A#                  cm
markana aivan - muistan sen aina

Ei -nahda voi nain - kukaan meita
       A#    G7          cm
Ulpukankukka,   mun liimatukka
fm                     cm
Niin vihreaa - on meri meille 
fm                      cm
lamminta niin - on meri meille
fm                        cm
En mitaan mieti - sylissa sinun 
             A#                 G7
sylissa taan meren - kalat pelottelee


Chorus:
                 cm           G#    G7    cm
Tule, tule poika uimaan kahlaamaan
                 cm           G#    G7    cm
Tule, tule poika uimaan kahlaamaan
                 cm           G#    G7    cm
Tule, tule poika uimaan kahlaamaan
                 cm           G#    G7    cm
Tule, tule poika uimaan kahlaamaan
fm                         G7
viela, viela, viela - kauemmas 


Choir: (fade away)
fm                   cm
Niin vihreaa on meri meille, 
fm                    cm
lamminta niin on meri meille,
fm                      cm
En mitaan mieti sylissa sinun, 
             A#                 G7
sylissa taan meren - kalat pelottelee




Guitar solo:
----------------|-----------|------------------|
-----------8----|-----8-----|--------8-------8-|
---8-8h10p8---8-|--10----8--|--8h10p8---8--10--|
----------------|-----------|------------------|
----------------|-----------|------------------|
----------------|-----------|------------------|
cm

------------|-------8----------------------|
--9-9-8-----|---------11-------------------|
--------10--|--10/12------10/12\10-8-------|
------------|------------------------10-10-|
------------|------------------------------|
------------|------------------------------|
A#           G7

----------------|-----------|------------------|
-----------8----|-----8-----|--------8-------8-|
---8-8h10p8---8-|--10----8--|--8h10p8---8--10--|
----------------|-----------|------------------|
----------------|-----------|------------------|
----------------|-----------|------------------|
cm

------------------|-------8----------------------|
--9h11-9p8-9p8----|---------11-------------------|
---------------10-|--10/12------10/12\10-8-------|
------------------|------------------------10-10-|
------------------|------------------------------|
------------------|------------------------------|
A#                 G7


Tap to rate this tab
# A B C D E F G H I J K L M N O P Q R S T U V W X Y Z