Song name
# A B C D E F G H I J K L M N O P Q R S T U V W X Y Z

Anna Puu - Mestaripiirros tab

-------------------------------------------------------------------------------
			     MESTARIPIIRROS - Anna Puu
-------------------------------------------------------------------------------
Tabbed by: Lampinen
Email: datagnome@hotmail.com

Tuning: standard

Intro & the basic pattern that is played throughout the song. The last
D-chord on the progression is more often played only 2 beats long, not 8.
Other minor variations occur, but too insignificant to tab.
   G     F#        A     B            G     F#        A     D
e|-------------------------------------------------------------------------------------|
B|---3-------3-------3-------3----------3-------3-------3-----3-----3---3-----3-----3--|
G|-----2---2---2-------2---2---2----------2---2---2-------2-----2---------2-----2------|
D|-5-----4-------4----------------2h4h5-----4-------4-------0-----0---0-----0-----0----|
A|-----------------0-----2----------------------------0--------------------------------|
E|-------------------------------------------------------------------------------------|

Keyboard rhythm and notes displayed below.
e|-------------------------------------------------------------------------------------|
B|---3-------3-------3-------3----------3-------3-------3-----3-----3---3-----3-----3--|
G|-----2---2---2-------2---2---2----------2---2---2-------2-----2---------2-----2------|
D|-5-----4-------4----------------2h4h5-----4-------4-------0-----0---0-----0-----0----|
A|-----------------0-----2----------------------------0--------------------------------|
E|-------------------------------------------------------------------------------------|
 |
e|-15----14--------12----10-----------10----10--------10----10-------------------------|
B|-------------------------------------------------------------------------------------|
G|-------------------------------------------------------------------------------------|
D|-------------------------------------------------------------------------------------|
A|-------------------------------------------------------------------------------------|
E|-------------------------------------------------------------------------------------|

Ending G     F#        A      E  D
e|------------------------------------|
B|-------3-------3-------3---------3--|
G|---------2---2---2-------2------2---|
D|-2h4h5-----4-------4--------2--0----|
A|---------------------0--------------|
E|------------------------------------|

| /  slide up
| \  slide down
| h  hammer-on
| p  pull-off
| ~  vibrato
| +  harmonic
| x  Mute note
===============================================================================
Tap to rate this tab
# A B C D E F G H I J K L M N O P Q R S T U V W X Y Z