Song name
# A B C D E F G H I J K L M N O P Q R S T U V W X Y Z

Anna Waronker - All For You tab

All For You
Always and Never
Goodnight Nurse

Dropped D Tuning
3/4 Time: Slow Tempo; approx. 85 BPM

Duration Legend
---------------
W - whole
H - half
Q - quarter
E - 8th
S - 16th


This is the piano part heard in various places in the song:

Piano
      E   E   E   E   E   E      E   E   E   E   E   E
E||--14----------14----------|--11----------11----------||
B||------14----------14------|----------12----------12--||
G||----------11----------11--|------11----------11------||
D||--------------------------|--------------------------||
A||--------------------------|--------------------------||
D||--------------------------|--------------------------||

Intro

*Clean*
     E  S S S S E  S S S S    E  S S S S E  S S S S
E||--------------------------|--2--2-2-2-2-2--2-2-2-2---||
B||--7--7-7-7-7-7--7-7-7-7---|--2--2-2-2-2-2--2-2-2-2---||
G||--6--6-6-6-6-6--6-6-6-6-x2|--4--4-4-4-4-4--4-4-4-4-x2||x3
D||--4--4-4-4-4-4--4-4-4-4---|--4--4-4-4-4-4--4-4-4-4---||
A||--4--4-4-4-4-4--4-4-4-4---|--2--2-2-2-2-2--2-2-2-2---||
D||--------------------------|--------------------------||

Verse 1

*Distortion*
*Palm Muted*
      E  S S S S E  S S S S    E  S S S S E  S S S S
E||--------------------------|--------------------------|
B||--------------------------|--------------------------|
G||------------------------x4|------------------------x4|
D||--------------------------|--------------------------|
A||--2--2-2-2-2-2--2-2-2-2---|--6--6-6-6-6-6--6-6-6-6---|
D||--------------------------|--------------------------|


  E  S S S S E  S S S S    E  S S S S E  S S S S
--------------------------|--------------------------||
--------------------------|--------------------------||
------------------------x4|------------------------x4||x2
--------------------------|--------------------------||
--------------------------|--------------------------||
--4--4-4-4-4-4--4-4-4-4---|--2--2-2-2-2-2--2-2-2-2---||

Chorus

*Clean*
     E  S S S S E  S S S S    E  S S S S E  S S S S
E||--------------------------|--2--2-2-2-2-2--2-2-2-2---||
B||--7--7-7-7-7-7--7-7-7-7---|--2--2-2-2-2-2--2-2-2-2---||
G||--6--6-6-6-6-6--6-6-6-6-x2|--4--4-4-4-4-4--4-4-4-4-x2||x8
D||--4--4-4-4-4-4--4-4-4-4---|--4--4-4-4-4-4--4-4-4-4---||
A||--4--4-4-4-4-4--4-4-4-4---|--2--2-2-2-2-2--2-2-2-2---||
D||--------------------------|--------------------------||

Verse 2

*Distortion*
*Palm Muted*
      E  S S S S E  S S S S    E  S S S S E  S S S S
E||--------------------------|--------------------------|
B||--------------------------|--------------------------|
G||------------------------x4|------------------------x4|
D||--------------------------|--------------------------|
A||--2--2-2-2-2-2--2-2-2-2---|--6--6-6-6-6-6--6-6-6-6---|
D||--------------------------|--------------------------|


  E  S S S S E  S S S S    E  S S S S E  S S S S
--------------------------|--------------------------||
--------------------------|--------------------------||
------------------------x4|------------------------x4||x2
--------------------------|--------------------------||
--------------------------|--------------------------||
--4--4-4-4-4-4--4-4-4-4---|--2--2-2-2-2-2--2-2-2-2---||

Chorus

*Clean*
     E  S S S S E  S S S S    E  S S S S E  S S S S
E||--------------------------|--2--2-2-2-2-2--2-2-2-2---||
B||--7--7-7-7-7-7--7-7-7-7---|--2--2-2-2-2-2--2-2-2-2---||
G||--6--6-6-6-6-6--6-6-6-6-x2|--4--4-4-4-4-4--4-4-4-4-x2||x8
D||--4--4-4-4-4-4--4-4-4-4---|--4--4-4-4-4-4--4-4-4-4---||
A||--4--4-4-4-4-4--4-4-4-4---|--2--2-2-2-2-2--2-2-2-2---||
D||--------------------------|--------------------------||

Bridge

*Distortion*
     E  S S S S E  S S S S    E  S S S S E  S S S S
E||------------------------|------------------------||
B||------------------------|------------------------||
G||--4--4-4-4-4-4--4-4-4-4-|------------------------||x8
D||--4--4-4-4-4-4--4-4-4-4-|--6--6-6-6-6-4--4-4-4-4-||
A||--2--2-2-2-2-2--2-2-2-2-|--6--6-6-6-6-4--4-4-4-4-||
D||------------------------|--6--6-6-6-6-4--4-4-4-4-||

Chorus

*Clean*
     E  S S S S E  S S S S    E  S S S S E  S S S S
E||--------------------------|--2--2-2-2-2-2--2-2-2-2---||
B||--7--7-7-7-7-7--7-7-7-7---|--2--2-2-2-2-2--2-2-2-2---||
G||--6--6-6-6-6-6--6-6-6-6-x2|--4--4-4-4-4-4--4-4-4-4-x2||x4
D||--4--4-4-4-4-4--4-4-4-4---|--4--4-4-4-4-4--4-4-4-4---||
A||--4--4-4-4-4-4--4-4-4-4---|--2--2-2-2-2-2--2-2-2-2---||
D||--------------------------|--------------------------||

Outro

*Distortion*
     E  S S S S E  S S S S    E  S S S S E  S S S S
E||------------------------|------------------------||
B||------------------------|------------------------||
G||--4--4-4-4-4------------|------------------------||x8
D||--4--4-4-4-4-2--2-2-2-2-|--6--6-6-6-6-4--4-4-4-4-||
A||--2--2-2-2-2-2--2-2-2-2-|--6--6-6-6-6-4--4-4-4-4-||
D||-------------2--2-2-2-2-|--6--6-6-6-6-4--4-4-4-4-||


~Enjoy
Tap to rate this tab
 
# A B C D E F G H I J K L M N O P Q R S T U V W X Y Z