Song name
# A B C D E F G H I J K L M N O P Q R S T U V W X Y Z

Annihilator - Murder tab

#----------------------------------PLEASE NOTE---------------------------------#
#This file is the author's own work and represents their interpretation of the #
#song. You may only use this file for private study, scholarship, or research. #
#------------------------------------------------------------------------------##
(If anyone would like to use these tabs for commercial use ie. Websites etc.
                 please seek permission as copyrights are held)

Annihilator - Murder

tabbed by ol753
www.annihilatormetal.com
ol753_357lo@yahoo.co.uk

Tuning - D A D G B E


Both Gtrs
play 4 times
|-------------------------------|
|-------------------------------|
|-------------------------------|
|-------------------------------|
|-0-4-3-0------0-4-3-0-----6----|
|-0-4-3-0------0-4-3-0-----6----|


Verse
Both Gtrs
play 4 times
|-------------------------------|
|-------------------------------|
|-------------------------------|
|-------------------------------|
|-0-4-3-0------0-4-3-0-----6----|
|-0-4-3-0------0-4-3-0-----6----|


Chorus
Both Gtrs
                                    PM------------|
|------------------------------------------------------|
|------------------------------------------------------|
|------------------------------------------------------|
|------------------------------------------------------|
|-5-5-5-5-5-5--5-5--5-5-5-5-5-5-5-5--------------------|
|-3-3-3-3-3-2--2-2--2-2-2-0-1-1-1-1-0--0-0-0-0-0--0----|


                                  PM------------|
|----------------------------------------------------|
|----------------------------------------------------|
|----------------------------------------------------|
|----------------------------------------------------|
|-5-5-5-5-5--5-5--5-5-5-5-5-5-5-5--------------------|
|-3-3-3-3-2--2-2--2-2-2-0-1-1-1-1-0--0-0-0-0-0--0----|


                                  PM------------|
|----------------------------------------------------|
|----------------------------------------------------|
|----------------------------------------------------|
|----------------------------------------------------|
|-5-5-5-5-5--5-5--5-5-5-5-5-5-5-5--------------------|
|-3-3-3-3-2--2-2--2-2-2-0-1-1-1-1-0--0-0--0-0-0-0----|


|------------------------------------------------------------|
|------------------------------------------------------------|
|------------------------------------------------------------|
|------------------------------------------------------------|
|-5-5-5-5-5--5-5--5-5-5-5-5-5-5-5-5-5-5-5-5-5-5-5-5-5-5-5----|
|-3-3-3-3-2--2-2--2-2-2-0-1-1-1-1-1-1-1-1-1-1-1-1-1-1-1-1----|


Both Gtrs
play 4 times, Gtr 3 Whammy bar stuff
|-------------------------------|
|-------------------------------|
|-------------------------------|
|-------------------------------|
|-0-4-3-0------0-4-3-0-----6----|
|-0-4-3-0------0-4-3-0-----6----|


Repeat Verse


Chorus 2
Both Gtrs
play 3 times
                                  PM------------|
|----------------------------------------------------|
|----------------------------------------------------|
|----------------------------------------------------|
|----------------------------------------------------|
|-5-5-5-5-5--5-5--5-5-5-5-5-5-5-5--------------------|
|-3-3-3-3-2--2-2--2-2-2-0-1-1-1-1-0--0-0--0-0-0-0----|


4th time
|------------------------------------------------------------|
|------------------------------------------------------------|
|------------------------------------------------------------|
|------------------------------------------------------------|
|-5-5-5-5-5--5-5--5-5-5-5-5-5-5-5-5-5-5-5-5-5-5-5-5-5-5-5----|
|-3-3-3-3-2--2-2--2-2-2-0-1-1-1-1-1-1-1-1-1-1-1-1-1-1-1-1----|


Gtr 3
3rd time, with wah
|---------------------------|
|-10----8--------8-----6----|
|-10----9--------8-----7----|
|---------------------------|
|---------------------------|
|---------------------------|


|---------------------------------------------------|
|-10----8--------8-8-8-8-8-8-8-8-8-8-8-8-8-8-8-8----|
|-10----9--------8-8-8-8-8-8-8-8-8-8-8-8-8-8-8-8----|
|---------------------------------------------------|
|---------------------------------------------------|
|---------------------------------------------------|


Both Gtrs
play 4 times, Gtr 3 Lead (to be added)
|-------------------------------|
|-------------------------------|
|-------------------------------|
|-------------------------------|
|-0-4-3-0------0-4-3-0-----6----|
|-0-4-3-0------0-4-3-0-----6----|


Both Gtrs
play 4 times, Gtr 3 Lead (to be added)
          PM--------------------|         PM--------------|
|----------------------------------------------------------------|
|----------------------------------------------------------------|
|----------------------------------------------------------------|
|----------------------------------------------------------------|
|-0-4-3-0-------------------------0-4-3-0-------------------6----|
|-0-4-3-0-0-0-0-0-0-0-0-0-0-0-0-0-0-4-3-0-0-0-0-0-0-0-0-0-0-6----|


Both Gtrs
play 3 times
|----------------------------------------------------|
|----------------------------------------------------|
|----------------------------------------------------|
|----------------------------------------------------|
|-5-5-5-5-5--5-5--5-5-5-5-5-5-5-5--------------------|
|-3-3-3-3-2--2-2--2-2-2-0-1-1-1-1-0--0-0--0-0-0-0----|


4th time
|------------------------------------------------------------|
|------------------------------------------------------------|
|------------------------------------------------------------|
|------------------------------------------------------------|
|-5-5-5-5-5--5-5--5-5-5-5-5-5-5-5-5-5-5-5-5-5-5-5-5-5-5-5----|
|-3-3-3-3-2--2-2--2-2-2-0-1-1-1-1-1-1-1-1-1-1-1-1-1-1-1-1----|


Repeat Verse


Chorus 3
play 7 times
                                     PM---------|
|----------------------------------------------------|
|----------------------------------------------------|
|----------------------------------------------------|
|----------------------------------------------------|
|-5-5-5-5-5--5-5--5-5-5-5-5-5-5-5--------------------|
|-3-3-3-3-2--2-2--2-2-2-0-1-1-1-1-0--0-0--0-0-0-0----|


8th time
|------------------------------------------------------------|
|------------------------------------------------------------|
|------------------------------------------------------------|
|------------------------------------------------------------|
|-5-5-5-5-5--5-5--5-5-5-5-5-5-5-5-5-5-5-5-5-5-5-5-5-5-5-5----|
|-3-3-3-3-2--2-2--2-2-2-0-1-1-1-1-1-1-1-1-1-1-1-1-1-1-1-1----|


|--------------------------------------|
|--------------------------------------|
|--------------------------------------|
|--------------------------------------|
|-5-5-5-5-5-5-5-5-5-5-5-5-5-5-5-5-0----|
|-1-1-1-1-1-1-1-1-1-1-1-1-1-1-1-1-0----|


Gtr 3
3rd time, with wah
play twice
|---------------------------|
|-10----8--------8-----6----|
|-10----9--------8-----7----|
|---------------------------|
|---------------------------|
|---------------------------|


Gtr 3
|-----------------------------------|
|-6-------5----------4-------3------|
|-8b10----7b9--------6b8-----5b7----|
|-----------------------------------|
|-----------------------------------|
|-----------------------------------|


|---------------------------------------|
|-6--------8-----------11--------3------|
|-8b10----10b12--------13b15-----5b7----|
|---------------------------------------|
|---------------------------------------|
|---------------------------------------|


|-----------------------------------|
|-6-------5----------4-------3------|
|-8b10----7b9--------6b8-----5b7----|
|-----------------------------------|
|-----------------------------------|
|-----------------------------------|


|--------------------------------------------------------------------------------|
|-6--------8-----------11-----11-----11-----11-----11-----11-----11-----11-------|
|-8b10----10b12--------13b15--13b15--13b15--13b15--13b15--13b15--13b15--13b15----|
|--------------------------------------------------------------------------------|
|--------------------------------------------------------------------------------|
|--------------------------------------------------------------------------------|


|--------------------------------------------------------------------------------|
|-11-----11-----11-----11-----11-----11-----11----11----11----11----11-----------|
|-13b15--13b15--13b15--13b15--13b15--13b15--13b15-13b15-13b15-13b15-13b15r=14----|
|--------------------------------------------------------------------------------|
|--------------------------------------------------------------------------------|
|--------------------------------------------------------------------------------|


Gtr 1
play 4 times
          PM---------------------|         PM-----------------|
|-------------------------------------------------------------------|
|-------------------------------------------------------------------|
|-------------------------------------------------------------------|
|-------------------------------------------------------------------|
|-0-4-3-0--------------------------0-4-3-0----------------------6---|
|-0-4-3-0-0-0-0-0-00-0-0-0-0-0-0-0-0-4-3-0-0-0-0-0-00-0-0-0-0-0-6---|


Gtr 2
play 4 times
|---------------------------------------|
|---------------------------------------|
|---------------------------------------|
|---------------------------------------|
|-0-----------------6---------------6---|
|-0-----------------6---------------6---|


Both Gtrs
play twice
          PM----------------------|         PM-----------------|
|-------------------------------------------------------------------|
|-------------------------------------------------------------------|
|-------------------------------------------------------------------|
|-------------------------------------------------------------------|
|-0-4-3-0---------------------------0-4-3-0----------------------6--|
|-0-4-3-0-0-0-0-0-00-0-0-0-00-0-0-0-0-4-3-0-0-0-0-0-00-0-0-0-0-0-6--|

          PM----------------------|         PM----------------|
|-------------------------------------------------------------------|
|-------------------------------------------------------------------|
|-------------------------------------------------------------------|
|-------------------------------------------------------------------|
|-0-4-3-0---------------------------0-4-3-0---------------------6---|
|-0-4-3-0-0-0-0-0-00-0-0-0-00-0-0-0-0-4-3-0-0-0-0-0-0-0-0-0-0-0-6---|


Both Gtrs
|------------------------|
|------------------------|
|------------------------|
|------------------------|
|-0-4-3-0-----0-4-3-0----|
|-0-4-3-0-----0-4-3-0----|


Tablature Legend
----------------
 h   - hammer-on
 p   - pull-off
 b   - bend
 pb  - pre-bend
 r   - bend release (if no number after the r, then release immediately)
 /\  - slide into or out of (from/to "nowhere")
 s   - legato slide
 S   - shift slide
  - natural harmonic
[n]  - artificial harmonic
n(n) - tapped harmonic
 ~   - vibrato
 tr  - trill
 T   - tap
 TP  - trem. picking
 PM  - palm muting
\n/  - tremolo bar dip; n = amount to dip
 \n  - tremolo bar down
 n/  - tremolo bar up
/n\  - tremolo bar inverted dip
 =   - hold bend; also acts as connecting device for hammers/pulls
 <>  - volume swell (louder/softer)
 x   - on rhythm slash represents muted slash
 o   - on rhythm slash represents single note slash

Misc Legend
-----------
 |  - bar
||  - double bar
||o - repeat start
o|| - repeat end
*|  - double bar (ending)
 :  - bar (freetime)
 $  - Segno
 &  - Coda
Tempo markers -  = BPM(8/16=s8/s16), where s8 = swing 8ths, s16 = swing 16ths

Tap to rate this tab
# A B C D E F G H I J K L M N O P Q R S T U V W X Y Z