Song name
# A B C D E F G H I J K L M N O P Q R S T U V W X Y Z

Annihilator - Holding On tab

"Annihilator - Holding on"
From the album "All for You"
Tabbed by Coen van der Wel

/ -- slide
h -- hammer on
p -- pull off
tuning -- normal (EADGBE)

This tab sounds quite right. The main riff consists basically out of
plucking the chords Bsus2, C#7sus, Bsus2 and F#major (in that order).
If you have any corrections or remarks, please let me know on
coenvdwel@planet.nl. It's not hard to play, and sounds great. Good luck!
Cheers!

--Main riff--
e|-------2--------------2--------------2--------------2-------|
B|-----2---2----------2---2----------2---2----------2---2-----|
G|---4-------4------4-------4------4-------4------3-------3---|
D|-------------4--------------4--------------4--------------4-|
A|-2-----------------------------2----------------------------|
E|----------------4-----------------------------2-------------|

--Solo--
e|-------------------------------------------------------4-6-7-7/9-7p6----|
B|---------------------------------------------------------------------7--|
G|---------3/4-3--------4---6/8-6-------------3/4-3-----------------------|
D|---------------4/6--6---6-------------------------4/6-------------------|
A|---6-4-6------------------------------6-4-6-----------------------------|
E|-4--------------------------------6p4-----------------------------------|

e|---7------7-------------------------7--------------------------4-6-6/7--|
B|---7------7----4-2-4-4/5-4-5p4p2----7------9----4-2-4-4/5-5/7-----------|
G|-8----6h8----4--------------------8----6h8----4-------------------------|
D|------------------------------------------------------------------------|
A|------------------------------------------------------------------------|
E|------------------------------------------------------------------------|

The last two chords are simply the first we played (Bsus2), and the same
but then with an upstroke. And we're all done! \o/
Tap to rate this tab
 
# A B C D E F G H I J K L M N O P Q R S T U V W X Y Z