Song name
# A B C D E F G H I J K L M N O P Q R S T U V W X Y Z

Anonymous - Greensleves tab

TAB by Danny Davis email me at danny.davis94@gmail.com
the whole song is played with variations of these chords: Am, E, and G



     Am                           G(modified)            Am
|-------------------------1p0--------------------------------------|
|--------1-----3----3--------------3---0-----------0-----1-----1---|
|---2----2----------2--------------0-------0----2--------2--2--2---|
|--------2----------2--------------0-------0-------------2-----2---|
|----------------------------------2-------2-----------------------|
|------------------------------------------------------------------|
         E
|------------------|
|------------------|
|-1-2-----1---2----|
|---------2------2-|
|---------2------2-|
|----------------0-|

it goes like that for the whole song


LYRICS
Alas my love you do me wrong
To cast me out discourteously
When I have loved you so so long
Delighting in your company

Your gown was of the grassy green
Your sleeves of satin were hanging by
Which made you be a harvest queen
Yet you would not love me

Green sleeves was my all my joy
Green sleeves was my delight
Green sleeves was my heart of gold
And who but my lady green sleeves

Alas my love you do me wrong
To cast me out discourteously
When I have loved you so so long
Delighting in your company

enjoy playing this and email me comments and questions
Tap to rate this tab
# A B C D E F G H I J K L M N O P Q R S T U V W X Y Z