Guitaretab - guitar tabs
Song name
# A B C D E F G H I J K L M N O P Q R S T U V W X Y Z

Anouk - Losing My Religion tab

Highlighted       Show chord diagrams
Losing My Religion(REM cover)  
Tabbed by J.DoubleO.P (joopeven@hotmail.com)

Artist: Anouk
Song: Losing My Religion (acoustic)

Ok, i know there a few different versions of this song, but this
tab is the way Anouk performs it.
Listen to get the right rythm and enjoy this great song.
I tabbed the 1e rythm guitar, but there's a 2e (solo)guitar in the song.
Maybe someone can help?? 

Tuning: half step down
Chords list: D - E - F#m - C#m - Bm -A - E(II)
Chords diagram:

 D         E         Eadd9     F#m       C#m       Bm        A
e|--2--|  e|--0--|  e|--0--|  e|--2--|  e|--4--|  e|--2--|  e|--0--|
b|--3--|  b|--0--|  b|--0--|  b|--2--|  b|--5--|  b|--3--|  b|--2--|
g|--2--|  g|--1--|  g|--1--|  g|--2--|  g|--6--|  g|--4--|  g|--2--|
D|--0--|  D|--2--|  D|--4--|  D|--4--|  D|--6--|  D|--4--|  D|--2--|
A|--X--|  A|--2--|  A|--2--|  A|--4--|  A|--4--|  A|--2--|  A|--0--|
E|--X--|  E|--0--|  E|--0--|  E|--2--|  E|--X--|  E|--X--|  E|--X--|


Intro: Voice only

C#m           F#m             C#m
   Oh life    it's bigger,    it's bigger than you

            F#m                              C#m
And you are not me, the wings that I will go to

                     F#m
The distance in your eyes

C#m                            Bm                E
   Oh no, I've said     too    much, I've said enough

			 Guitar falls in from here
                       F#m                   C#m
That's me in the corner,    That's me in the spot light,

                  F#m           C#m
Losing my religion    Trying to keep an eye on you

      F#m
And I don't know if I can do it

C#m                     Bm            E
   Oh no, I've said too much, I said enough

                           D 
I thought that I heard you laughing

                           F#m    
I thought that I heard you sing

  D                 E       F#m   Eadd9
I think I thought I saw you try

                   F#m
  And every whisper,
                 C#m                        F#m
And every waking hour,   I'm choosing my confessions

          C#m
Trying to keep an eye on you

       F#m
Like a hurt lost and blinded fool, fool

C#m                     Bm                      E
   Oh no, I've said too much    I haven't said enough,   well

         F#m                    C#m
Consider this,    consider this the end of the century

         F#m               C#m
Consider this,    as well, it brought me to my knees   pale

F#m                               C#m
What if all these fantasies come    played in the ground
[ Tab from: http://www.guitaretab.com/a/anouk/144673.html ]
             Bm              E
And now I've said yeah,  too much

                           D 
I thought that I heard you laughing

  E                        F#m    
I thought that I heard you sing

  D                 E       F#m   Eadd9 
I think I thought I saw you try

Interlude

    A                    Bm
    Yeah,                Yeah,  
e|--9--9--9--7--7--7--7-------------------------------------|
b|-----------------------10--10--10--7--7--7--7-------------|
g|----------------------------------------------------------|
D|----------------------------------------------------------|
A|----------------------------------------------------------|
E|----------------------------------------------------------|
   A                     Bm
   Yeah,                 Yeah,  
e|--9--9--9--7--7--7--7-------------------------------------|
b|-----------------------10--10--10--7--7--7--7-------------|
g|----------------------------------------------------------|
D|----------------------------------------------------------|
A|----------------------------------------------------------|
E|----------------------------------------------------------|

    A                    Bm
    But that was just a  dream, 

A                    Bm                      F#m
Yeah that was just a dream, That's me in the corner       
 
                     F#m                   C#m                   
And that's me in the spot light, losing my religion

          C#m                        F#m
Trying to keep an eye on you,  And I don't know if I can do it

C#m                     Bm
   Oh no, I've said too much

                E
I hadn't said enough
 
                           D 
I thought that I heard you laughing

  E                        F#m    
I thought that I heard you sing

  D                 E         F#m
I think I thought I saw   you try

    D               E           F#m       
But that was just a dream,      try, cry, try, yeah

D                   E               F#m           Eadd9  Outro
And that was just a dream,   just a dream, just a dream, dream

Outro 7x 
e|--9--9--9--9--9--9--9--9--|
b|--------------------------|
g|--------------------------|
D|--------------------------|
A|--------------------------|
E|--------------------------|

e|--9--7----------7-------------------|
b|----------10--7------10--7--10--7v--|
g|------------------------------------|
D|------------------------------------|
A|------------------------------------|
E|------------------------------------|

X=don't play
v=vibrato

Losing My Religion Tabbed by  J.DoubleO.P  have fun
Comments, additions, corrections:
joopeven@hotmail.com
Related for Losing My Religion tab
×
Best way to learn
"Losing My Religion"