Song name
# A B C D E F G H I J K L M N O P Q R S T U V W X Y Z

Anouk - Lost tab

Gsus4  = 3-2-0-0-3-3
D/F#   = 2-x-0-2-3-2
Csus4  = x-3-2-0-3-0
C      = x-3-2-0-1-0

    Gsus4                   D/F#
e |--------------------------------------------------|
B |--------------------------------------------------|
G |-------0-----------0-----------2-----------2------|
D |-----0---0-------0---0-------0---0-------0---0----|
A |---2-------2---2-------2---0-------0---0-------0--|
E |-3-----------3-----------2-----------2------------|

     Csus4                  D/F#
e |--------------------------------2-----------2-----|
B |-------3-----------3----------3---3-------3---3---|
G |-----0---0-------0---0------2-------2---2-------3-|
D |---2-------2---2-------2--0-----------0-----------|
A |-3-----------3------------------------------------|
E |--------------------------------------------------|

(intro)
|Gsus4  D/F#  |Csus4  D/F#  |
|Gsus4  D/F#  |Csus4  D/F#  |

Gsus4
 If Roses are meant to be red
D/F#
 And violets to be blue
Csus4
 Why isn't my heart
D/F#
 Meant for you

My hands are longing to touch you
I can better breathe
Story eyes that make me melt
You right in front of me

Gsus4
 Lost in this world
D/F#
 I even get lost in this song
C
 And when the lights go down
D/F#
 That is where I'll be found

If music is irresistible
Your voice makes my skin crawl
Innocent and pure
Guess you heard it all before

Mystery inaccessible
Will this ever change
One thing that remains the same
Your picture in a frame

Gsus4
 Lost in this world
D/F#
 I even get lost in this song
Csus4
 And when the lights go down
D/F#
 That is where I'll be found

Gsus4
 Lost in this world
D/F#
 I even get lost in this song
Csus4
 And when the lights go down
D/F#
 That is where I'll be found

|Csus4  D/F#  |Csus4 D/F#  |

Lost in this world
I get lost in your eyes
And when the lights go down
And we're the only ones

|Gsus4  D/F#  |C     D/F#  |
|Gsus4  D/F#  |C     D/F#  |
|Gsus4  D/F#  |C     D/F#  |
|Gsus4  D/F#  |C     D/F#  |
Tap to rate this tab
 
# A B C D E F G H I J K L M N O P Q R S T U V W X Y Z