Song name
# A B C D E F G H I J K L M N O P Q R S T U V W X Y Z

Anouk - Time Is A Jailer tab

----------------------------------------------------------------------------
			     SONG NAME - Band Name
----------------------------------------------------------------------------
Tabbed by: Toontje
Email: kruk@evd.nl

Tuning: standard

Greate song, not too difficult to play but very effective... Don't pay to much
attention to how I marked the bars / measure. If you listen to the song, you'll
understand - hopefully. I'm not quite sure about the chords in the brake either,
suggestions are welcome!

INTRO  
e|----------3-2--|-2h3p2p0----0-------|--------------|--------------------|
B|----3-h5-------|------------0-------|--------1-----|------1------1------|
G|---------------|------------0-------|------2---2---|----2------2--------|
D|---------------|------------2-------|---3--------3-|--------------------|
A|--0------------|------------2-------|--------------|--------------------|
E|---------------|------------0-------|-1------------|-2-------1----------|
  E
e|---------------|
B|-------0-------|
G|-----1---1-----|
D|---2-------2---|
A|---------------|
E|-0-------------|

VERSE  
e|--------------|-------------|-------------|-------------------|
B|-------1------|-------1-----|-------1-----|-----1-------------|
G|-----2---2----|-----2---2---|-----0---0---|---2-----------2---|
D|---2-------2--|---2-------2-|---2-------2-|-0-----------4-----|
A|-0------------|-------------|-3-----------|-------1-/-2-------|
E|--------------|-1-----------|-------------|-------------------|
        No-one...

e|--------------|-------------|-------------|-------------------|
B|-------0------|-------0-----|-------1-----|-2--3--5--2--------|
G|-----1---1----|-----1---1---|-----2---2---|----2--6-----------|
D|---3-------3--|---3-------3-|---2-------2-|-2--3--5--2--------|
A|-2------------|-------------|-0-----------|-------------------|
E|--------------|-1-----------|-------------|-------------------|
         Still...

e|--------------|-------3-----|-------------|-------------------|
B|-------1------|-----3---3---|-------1-----|-------0-----------|
G|-----2---2----|---1-------1-|-----0---0---|-----1---1---------|
D|---2-------2--|-------------|---2-------2-|---2-------2-------|
A|-5------------|-------------|-3-----------|-------------------|
E|--------------|-3-----------|-------------|-0-----------------|
         I know...

e|--------------------------------------------------------------|
B|-----1------1-----------------------0h1-----------------------|
G|---2------2--------1-------1------2-----2----------1----------|
D|-----------------2-------2------2---------2------2---2--------|
A|-----------------------2------0----------------2-------2------|
E|-2------1-----0------------------------------0----------------|
          Time...


BRAKE
e|------------------|----------------|-1-------------|---------------------|
B|-1----------------|-1--------------|-3-------------|---------------------|
G|-2----------------|-2--------------|-2-------------|-1-------------------|
D|-2----------------|-1--------------|---------------|-2-------------------|
A|-3----------------|-3--------------|---------------|-2-------------------|
E|------------------|----------------|---------------|---------------------|
   I shot...          Alone...         This...         Is the...

| /  slide up
| \  slide down
| h  hammer-on
| p  pull-off
| ~  vibrato
| +  harmonic
| x  Mute note
===============================================================================
Tap to rate this tab
 
# A B C D E F G H I J K L M N O P Q R S T U V W X Y Z