Song name
# A B C D E F G H I J K L M N O P Q R S T U V W X Y Z

Anouk - Girl tab

Anouk-Girl
C#m = -X-4-6-6-5-4--|
A = -5-7-7-6-5-5----|
E = -X-7-9-9-9-7----|
F#m = -2-4-4-2-2-2--|
Bb = -6-8-8-7-6-6---|
B = -7-9-9-8-7-7----|


Riff.1
   "C#m"        "A"          "E"
e|-----------|------------|-----------|------------|
B|---5-----5-|---5-----5--|---9----9--|---9--------|
G|---6-----6-|---6-----6--|---9----9--|---9--------|
D|---6-----6-|---7-----7--|---9----9--|---9--------|
A|-x-4---x-4-|---7-----7--|-x-7--x-7--|-x-7--6h7p6-|
E|-----------|-x-5---x-5--|-----------|------------|

Riff.2
  "C#(m)"         "A"            "E"            "E"
e|--------------|--------------|--------------|-----------------|
B|--------------|--------------|--------------|-----------------|
G|--------------|--------------|--------------|-----------------|
D|-11-11-11-11--|--7--7--7--7-/|-14-14-14-14--|-14--14--13--13--|
A|--x--x--x--x--|--x--x--x--x--|--x--x--x--x--|--x---x---x---x--|
E|--9--9--9--9--|--5--5--5--5-/|-12-12-12-12--|-12--12--11--11--|

Maat: 4/4

Anouk - Girl


Intro: C#m(riff.1) | A | E | E  | 2x

 C#m(riff.1)             A
Girl, Girl, Girl when I hear you talk,
E
oeh...my mind get's blocked girl.
C#m(riff.1)        A
Speak up cause my jaw is locked,
          E
which is good, good for me girl.
 C#m(riff.1)      A             E
Big hawks like a warning sign,

I'm to blind to see
 C#m(riff.1)      A
Speak up yes I'm coming down
         E                             C#m (Riff.2)
with an ice cold fever, ice cold fever
 A           E | E
ice cold fever

 F#m                             A
Still got my hands there clinging, so I just keep going.
E        B            A            F#m          A   B
I don't know where I belong, could I belong to you
    E         B        A               F#m
No, I don't know where I belong, could I belong...

Girl, Girl, Girl get it while it's hot they say,
you see I'm burning up here.
I want to but I just can't stop and it hurts,
it hurst like hell girl.
You turn me inside out and upside down
You got me head over heals
I'm stuck yes I'm coming down
with an ice cold fever, ice cold fever
ice cold fever

Still got my hands there clinging, so I just keep going.
I don't know where I belong, could I belong to you
No, I don't know where I belong, could I belong...

      A
Could I belong...

C#m | A | E | Bb | 2x

Still got my hands there clinging, so I just keep going.
I don't know where I belong, could I belong to you
No, I don't know where I belong, could I belong...

              A              C#m       A
O yeah, Could I belong...to you, you, you
    E         B       C#m       A
To you, yeah you, to you, you, you
    E         B       C#m       A
To you, yeah you, to you, you, you
     E            B       C#m       A
Yeah I belong to you, To you, yeah you
     E            B
Yeah I belong to you

Outro: C#m | % | % | % | 2x
Tap to rate this tab
# A B C D E F G H I J K L M N O P Q R S T U V W X Y Z