Song name
# A B C D E F G H I J K L M N O P Q R S T U V W X Y Z

Anouk - Together Alone tab

-------------------------------------------------------------------------------
			     Together Alone - Anouk
-------------------------------------------------------------------------------
Tabbed by: Idan
Email: Idanl_22@yahoo.com

Tuning: Standart

Very easy, find strumming patterns through the song.

Intro+Verse (Clean, quiet)

e|--4----3--|
B|--4----4--|
G|--4----5--|
D|--6----6--|
A|--x----0--|
E|--0-------|

Pre-chorus (Quiet)

e|---------------|
B|---------------|
G|---------------|
D|-----9--7--11--|
A|--9--7--5--9---|
E|--7------------|

Chorus (Loud, w/ dist.)

e|-----------------------------|
B|-----------------------------|
G|-----9--7--11-----9--7--6-5--|
D|--9--9--7--11--9--9--7--6-5--|
A|--9--7--5--9---9--7--5--4-3--|
E|--7------------7-------------|

| x  Mute note
===============================================================================
Tap to rate this tab
 
# A B C D E F G H I J K L M N O P Q R S T U V W X Y Z