Song name
# A B C D E F G H I J K L M N O P Q R S T U V W X Y Z

Anouk - Searching tab

Help us improve GuitareTab! Take a short survey!
Artist: Anouk
Song: Searching
standard tuning
tabbed by: Mat (mat2k@gmx.net)
----------------------------------------------------

Chords used:
  Fm    G#    Cm7   D#    A#     C#     D#(2)  F7
|-(1)-|-(3)-|-(3)-|-(6)-|-(6)-|-(9)--|-(11)-|--8--|
|-(1)-|-(3)-|-(4)-|-(8)-|-(6)-|-(9)--|-(11)-|--9--|
|-(1)-|-(4)-|--3--|--8--|-(7)-|-(10)-|-(12)-|--8--|
|--3--|--5--|--5--|--8--|--8--|--11--|--13--|--10-|
|--3--|--5--|--3--|--6--|--8--|--11--|--13--|--8--|
|--1--|--3--|-(3)-|-(6)-|--6--|--9---|--11--|--x--|

Fill 1:    Riff1:
|-4-4-4-| |----------|
|-4-4-4-| |----------|
|-x-x-x-| |--5\3p1-1-|
|-x-x-x-| |-------3--|
|-x-x-x-| |----------|
|-x-x-x-| |----------|

Verse(rhytm-idea): [d = downstroke u = upstroke]

|-(1)-(1)-(1)--x-x-x-x--------------|
|-(1)-(1)-(1)--x-x-x-x--------------|
|-(1)-(1)-(1)--x-x-x-x--3p1---------|
|--3---3---3---x-x-x-x-----3p1------|
|--3---3---3---x-x-x-x--------------|
|--1---1---1---x-x-x-X--------------|
   d   d   d   d u u d  d   u


[Intro]
Fm  G# (3x)  Fm Fm

[Verse 1]
                 Fm                         Fm
I am looking for answers to questions never posed
                cm7                      Cm7
I havent got a clue, Im living like a ghost
                D#
I cant seem to read the signs
                    A#                Fm     Fm Fm
Im swimming in the sand, Im searching    yeahhaa

[Verse 2]
                 Fm                         Fm
I hold on to your reasons, Ill hold on to my dreams
                cm7                      Cm7
Its all good and bad advice cause you have to choose
                D#                          A#       Fm (Fill 1) Fm(riff 1)
One friend says to go ahead, other one says dont, Im searching 

[Bridge]
A#              D#  (slide)Fm      G#  Fm  G#
 Whatever I try, I cant find it
A#               D#            (slide)
 Wherever I roam, its all gone

[Refrain]
Fm     G#          A#
No you cant find it
C#         D#(2)      Fm G#  A#  C# D#(2)
First you gotta lose it
Fm     G#          A#
No you cant find it
C#         D#(2)       Fm G#  A#  C# D#(2)
First you gotta lose it

Fm Fm Fm (slide) F7 F7
yeah ha

Looking for an angle, to change my point of view
Waiting for somebody, someone to relate to
Hoping for forgiveness, Im living for love
Im searching

Yearning for a teacher, to show me what to do
Im learning from failure, thats all that I can do
Working on solutions, a fiction of truth
Keep on searching

A#               D#  (slide)  Fm      G#  Fm  G#
 Whatever I try, I cant find it
A#               D#
 Wherever I roam, its all gone

F      G#          A#
No you cant find it
C#         D#(2)       F  G#  A#  C# D#(2)
First you gotta lose it
F      G#          A#
No you cant find it
C#         D#(2)       F  G#  A#  C# D#(2)
First you gotta lose it
Related for Searching tab