Song name
# A B C D E F G H I J K L M N O P Q R S T U V W X Y Z

Anssi Kela - Puistossa tab

-------------------------------------------------------------------------
PUISTOSSA – Anssi Kela
-------------------------------------------------------------------------
Tabbed by: Kengus

Standard tuning

INTRO
   Am              F         C              G/B         Am
e|-----------------------1-x---------------------------------------------|
B|-------0h1---x-------1---x---------1---x---------3-x--------0h1---x----|
G|-----2-----2-x-----2-----x-------0---0-x-------0---x------2-----2-x----|
D|---2---------x-0h3-------x---0h2-------x-----0-----x----2---------x----|
A|-0-----------x-------------3-----------x-0h2-------x--0-----------x----|
E|-----------------------------------------------------------------------|
     F         C
e|---------1-x--------------|
B|-------1---x---------1----|
G|-----2-----x-------0---0--|
D|-0h3-------x---0h2--------|
A|-------------3------------|
E|--------------------------|

VERSE I
   Am              F         C              G/B         Am
e|-----------------------1-x---------------------------------------------|
B|-------0h1---x-------1---x---------1---x---------3-x--------0h1---x----|
G|-----2-----2-x-----2-----x-------0---0-x-------0---x------2-----2-x----|
D|---2---------x-0h3-------x---0h2-------x-----0-----x----2---------x----|
A|-0-----------x-------------3-----------x-0h2-------x--0-----------x----|
E|-----------------------------------------------------------------------|
     F         C             G/B
e|---------1-x----------------------------------|
B|-------1---x---------1---x---------3-------3--|
G|-----2-----x-------0---0-x-------0---0---0----| x2
D|-0h3-------x---0h2-------x-----0-------0------|
A|-------------3-----------x-0h2----------------|
E|----------------------------------------------|

INTERLUDE
   Am              F         C              G/B
e|-----------------------1-x----------------------------|
B|-------0h1---x-------1---x---------1---x---------3-x--|
G|-----2-----2-x-----2-----x-------0---0-x-------0---x--|
D|---2---------x-0h3-------x---0h2-------x-----0-----x--|
A|-0-----------x-------------3-----------x-0h2-------x--|
E|------------------------------------------------------|

VERSE II
   Am              F         C              G/B                Am
e|-----------------------1-x---------------------------------------------|
B|-------0h1---x-------1---x---------1---x---------3--------3--------0h1-|
G|-----2-----2-x-----2-----x-------0---0-x-------0---0---0---------2-----|
D|---2---------x-0h3-------x---0h2-------x-----0-------0---------2-------|
A|-0-----------x-------------3-----------x-0h2-----------------0---------|
E|-----------------------------------------------------------------------|
         F         C             G/B         Am              F         C
e|-------------1-x-------------------------------------------------1-x---|
B|---x-------1---x---------1---x---------3-x-------0h1---x-------1---x---|
G|-2-x-----2-----x-------0---0-x-------0---x-----2-----2-x-----2-----x---|
D|---x-0h3-------x---0h2-------x-----0-----x---2---------x-0h3-------x---|
A|---x-------------3-----------x-0h2-------x-0-----------x-------------3-|
E|-----------------------------------------------------------------------|
   C              G/B            Am              F         C           Em
e|----------------------------------------------------1-x---------------0|
B|------1---x---------3-------3-------0h1---x-------1---x---------1---x-0|
G|----0---0-x-------0---0---0-------2-----2-x-----2-----x-------0---0-x-0|
D|0h2-------x-----0-------0-------2---------x-0h3-------x---0h2-------x-2|
A|----------x-0h2---------------0-----------x-------------3-----------x-2|
E|----------------------------------------------------------------------0|

VERSE I
Am            F           C           G/B
   Puistossa ilta viilenee, Pete lämpimikseen hyppelee
Am          F               C           G/B            Am
   Kelloaan katsoo kiroillen, sytyttää röökin viimeisen
               F           C                G/B
Luokan priimus oli koulussa, nyt kuudentoista, koniin koukussa
Am             F            C           G/B          Am...
   Eikä mutsi jaksa välittää, faijaansa ei oo nähnytkään

INTERLUDE
...F  C  G/B

VERSE II
Am              F              C           G/B                Am
    Pete pitää huolen itsestään, eilen sai viestin frendiltään:
                 F              C               G/B                Am
"Nyt ois helpot massit tiedossa, jos tuut mukaan, nähdään puistossa"
             F               C             G/B
Pete pystyyn nostaa kaulukset, ja kiskoo sauhut viimeiset
Am                  F              C              Em
    Vielä kerran miettii mielessään: "Ei oo mitään   menetettävää"

CHORUS
Am             F           C          G/B          Am
    Maailma matkaa radallaan, päivä nousee uudestaan
            F            C            G/B          Am
Ei mikään muutu milloinkaan, kaikki säilyy ennallaan
        F           C         G/B          Am
Samat tuulet puhaltaa, samat sateet lankeaa
          F           C          G/B        Am...
Ja kaikki kaunis katoaa, kaikki kuolee aikanaan

INTERLUDE II
F  Am  F

VERSE III
Am                 F             C         G/B
    Kaunis nuori nainen Laura on, käytyään Kauppaopiston
Am               F             C           G/B            Am
    Päätti oman firman perustaa, haki ison lainan pankistaan
              F               C           G/B
Mutta Laura joutui vaikeuksiin, ajettiin firma konkurssiin
Am            F             C
    Nyt selviä ei laskuistaan, lainasta puhumattakaan

VERSE IV
Am                    F            C                 G/B          Am
    Sen vanhemmilla rahaa riittäis, mut ne ei haluu auttaa tytärtään
                 F              C             G/B
Ne sanoo: "Tervetuloa maailmaan, täällä pärjätä saa omillaan"
Am                 F             C            Em
    Laura valvoo yönsä rukoillen: "Luoja auta,   selviä en"

CHORUS
Am             F           C          G/B          Am
    Maailma matkaa radallaan, päivä nousee uudestaan
            F            C            G/B          Am
Ei mikään muutu milloinkaan, kaikki säilyy ennallaan
        F           C         G/B          Am
Samat tuulet puhaltaa, samat sateet lankeaa
          F           C          G/B        Am...
Ja kaikki kaunis katoaa, kaikki kuolee aikanaan

INTERLUDE (pause with Am)
...

VERSE V
Am           F              C               G/B
    Laura saapuu prätkällään, sen puiston laitaan pysäyttää
Am                F             C             G/B
    Pete nousee taakse istumaan, kumpikaan ei sano sanaakaan
Am                F            C            G/B
    Ja he ajavat pihaan huvilan, Laura avaimensa ojentaa
Am             F             C              G/B          Am...
    Ja Peteä vielä muistuttaa, missä mutsi pitää korujaan

VERSE VI
               ...F         C                  G/B
He luulivat jo selvinneensä, kun Laura näkee peileistänsä
Am               F             C           G/B
   Kuinka valot siniset välähtää, vaatien pysähtymään
Am                F            C
   Laura kääntää kahvaa huutaen: "Pidä kiinni, Petri Ruusunen!"
                                       Em
Aamulla lööpit hehkuttaa, ja hetken he ovat legendaa

CHORUS
Am             F           C          G/B          Am
    Maailma matkaa radallaan, päivä nousee uudestaan
            F            C            G/B          Am
Ei mikään muutu milloinkaan, kaikki säilyy ennallaan
        F           C         G/B          Am
Samat tuulet puhaltaa, samat sateet lankeaa
          F           C          G/B       Bm...    
Ja kaikki kaunis katoaa, kaikki kuolee aikanaan

BRIDGE/OUTRO
...G  D  Asus2/C#
Bm  G  D  Asus2/C#
Am  F  C  G/B
Am  F  C  G/B  Em                                       Asus2/C# = x42200
=========================================================================
Tap to rate this tab
 
# A B C D E F G H I J K L M N O P Q R S T U V W X Y Z