Song name
# A B C D E F G H I J K L M N O P Q R S T U V W X Y Z

Antemasque - 4am tab

http://antemasque.bandcamp.com/

Just the first intro riff:

E ||--------------------------------------------------|----------------------------|
B ||-------------------5--5--5-----3-----0------------|----------------------------|
G ||o-------------------------------------------------|-----------2--0-----0-------|
D ||o7-----7-----7-----------------------------3------|-----3--3--------2-----0----|
A ||-7-----7-----7-----------------------------3------|-----3--3-------------------|
E ||-5-----5-----5-----------------------------1------|-----1--1-------------------|


---------------------------------------------------|-------------------------------------------------|||
---------------------------------------------------|-------------------------------------------------|||
--------------------4--4--4-----2-----0-----5------|--------5-----x-----7---------7-----x-----------o|||
--5-----5-----5-----------------------------5------|--------5-----x-----7---------7-----x-----7--7--o|||
--5-----5-----5-----------------------------3------|--------3-----x-----5---------5-----x-----7--7---|||
--3-----3-----3------------------------------------|------------------------------------------5--5---|||
Tap to rate this tab
# A B C D E F G H I J K L M N O P Q R S T U V W X Y Z