Song name
# A B C D E F G H I J K L M N O P Q R S T U V W X Y Z

Anthony Green - Devils Song This Feels Like A Nightmare tab

Found it here: http://www.guitaretab.com/a/anthony-green/243191.html

Could be put in Drop D, but I don't think it changes too much.

The Devil's Song (This Feels Like A Nightmare)
Intro/Chorus
d|--00000000-0-0000-55/20-00---|
a|--00005555-0-0000-77/00-00---|
f|--00000000-0-0000-77/00-00---|
c|--22224444-2-2222-xx/22-22---|
g|--22225555-2-2222-------22---|
d|--0000-----0-2222-------00---|

Verse
d|--000000000~-000000000~0~--|
a|--000000000~-000000000~0~--|
f|--555544440~-555544440~2~--|
c|--777755552~-777755552~3~--|
g|--000000002~-000000002~0~--|
d|----------0~---------0~----|

Chorus

Bridge/Outro
d|---0-----0------|
a|---0-----0------|
f|---3-----5------|
c|---5-----7------|
g|---5-----0------|
d|---x-----x------|
"We're all in the same spot..."
Tap to rate this tab
 
# A B C D E F G H I J K L M N O P Q R S T U V W X Y Z