Anthony Green - Stolen tab

-------------------------------------------------------------------------------
			             STOLEN - Anthony Green
-------------------------------------------------------------------------------
Tabbed by: Chris Bishop
Email: blackenigma2@yahoo.com

Tuning: E-A-D-G-B-e (capo on 3rd fret)

e|----------0-----------------------------------------------------------------|
B|----0-----0-----------------------------------------------------------------|
G|----4-----9-----------------------------------------------------------------|
D|----4-----9-----------------------------------------------------------------|
A|----2-----7-----------------------------------------------------------------|
E|----2-----0-----------------------------------------------------------------|


**as played on the youtube video "Circa Vision - Acoustic II"
Tap to rate this tab
 
# A B C D E F G H I J K L M N O P Q R S T U V W X Y Z