Song name
# A B C D E F G H I J K L M N O P Q R S T U V W X Y Z

Anthony Green - Blood Song tab

This one is also a whole step down. Didn't feel like putting the "0's" was necessary, 
just figure that and the rhythm and such and you should be good! I put a few lines of the 
lyrics to show the first changes to the next chord.

Verse: "Who's gonna bury in the well."

D----------------|
A----------------|
F----------------|
C----------------|
G------2---------|
D------3---------|

D----------------|
A----------------|
F----------------|
C------2---------|
G------3---------|
D----------------|

"Nobody knew him he had only arrived."

D----------------|
A----------------|
F----------------|
C----------------|
G------0---------|
D------2---------|

D----------------|
A----------------|
F----------------|
C------2---------|
G------2---------|
D----------------|

Prechorus: "And I'm not giving..."

D----------------|
A------2---------|
F------2---------|
C------2---------|
G----------------|
D----------------|

Chorus: "these orphans away."

D----------------|
A------1---------|
F----------------|
C------2---------|
G------3---------|
D----------------|
Tap to rate this tab
# A B C D E F G H I J K L M N O P Q R S T U V W X Y Z