Song name
# A B C D E F G H I J K L M N O P Q R S T U V W X Y Z

Anthrax - Inside Out tab

#----------------------------------PLEASE NOTE---------------------------------#
#This file is the author's own work and represents their interpretation of the #
#song. You may only use this file for private study, scholarship, or research. #
#------------------------------------------------------------------------------#

INSIDE OUT


Transcribed by peekaboo104@hotmail.com
	

Words and Music by Frank Bello, Charlie Benante, John Bush and Scott Ian

D5
0 0 0 x x x
	
F5
3 3 3 x x x
	
Bb5
8 8 8 x x x
	
A5
7 7 7 x x x

D
x x 0 2 3 2
	
D5II
0 0 0 2 3 5

Gtr I (Db Ab Db Gb Bb Eb) - 'Gtr. 1'
Gtr II (Db Ab Db Gb Bb Eb) - 'Gtr. 2'
Gtr III (Db Ab Db Gb Bb Eb) - 'Gtr. 3'
Gtr IV (Db Ab Db Gb Bb Eb) - 'Gtr. 4'
Gtr V (Db Ab Db Gb Bb Eb) - 'Gtr. 5'
Gtr VI (Db Ab Db Gb Bb Eb) - 'Gtr. 6'

 Intro
  Moderately Q=92
 4/4
  Gtr I
  E E E E +H       E E E E +E  E E E
|----------------|-------------------|
|----------------|-------------------|
|-------0-(0)----|-------0-(0)-------|
|-----2----------|-----2-------2-----|
|---3------------|---3-----------3---|
|-3--------------|-3---------------3-|
|
| Gtr II
| W                W
|----------------|-------------------|
|----------------|-------------------|
|----------------|-------------------|
|----------------|-------------------|
|----------------|-------------------|
|----------------|-------------------|


  E E E E +E  S S Q    +Q.         S S E E E E
|--------------------|--------------------------|
|-------3-(3)-3s5s3--|-(3)---------3s5s3--------|
|-------2-(2)-2s4s2--|-(2)---------2s4s2-2------|
|-----0--------------|---------------------0----|
|---0----------------|-----------------------0--|
|-0------------------|--------------------------|
|
|                          |-3-|
| W                     E  S S S E E   E E E E
|--------------------|-----2h3p2-0-----0--------|
|--------------------|-------------3-----1-3----|
|--------------------|-----------------------2--|
|--------------------|--------------------------|
|--------------------|--------------------------|
|--------------------|--------------------------|


   E  E E E +H       E E E E +E  E E E   W          +W
|------------------|-------------------|----------|--------|
|------------------|-------------------|-3--------|-(3)----|
|---------0-(0)----|-------0-(0)-------|-2--------|-(2)----|
|-------2----------|-----2-------2-----|-0--------|-(0)----|
|-----3------------|---3-----------3---|-0--------|-(0)----|
|--3---------------|-3---------------3-|-0--------|-(0)----|
|
| +W                 W                   W           W
|------------------|-------------------|----------|--------|
|------------------|-------------------|----------|--------|
|-(2)--------------|-------------------|----------|--------|
|------------------|-------------------|----------|--------|
|------------------|-------------------|----------|--------|
|------------------|-------------------|----------|--------|


    Gtrs II, III
    S   +S  S S S   +S  S S    +S   S e S   +S  S S
||-----------------------------------------------------|
||o----------------------------------------------------|
||-----------------------------------------------------|
||-----------------------------------------------------|
||o----------------------------------------------------|
||--2b3r(2)-0-0-1b2r(1)-0-2b3==(2)r-0-0-1b2r(1)-0-2b3==|


                                             Gtr III
  +S   S E S   +S  S S    +S   S S S E E  4x W
|-----------------------------------------||------|
|----------------------------------------o||------|
|-----------------------------------------||------|
|------------------------------------1-1--||-0----|
|------------------------------------1-1-o||-0----|
|-(2)r-0-0-1b2r(1)-0-2b3==(2)r-0-0-0-1-1--||-0----|


                                                  1st and 2nd Verses
                                                   Gtr I
   >
  +W           +W           W                       e  e e e e e e e
|------------|------------|--------------------||--------------------|
|------------|------------|--------------------||o--3--3-3-3-3-3-3-3-|
|------------|------------|--------------------||--------------------|
|-(0)--------|-(0)--------|--------------------||--------------------|
|-(0)--------|-(0)--------|--------------------||o-------------------|
|-(0)--------|-(0)--------|--------------------||--------------------|
|
| Gtr II
|                             |-3-|
|  W            W           E S S S E E E E Q      +W
|------------|------------|---2h3p2-0---0------||--------------------|
|------------|------------|-----------3---1-3--||o-(3)---------------|
|------------|------------|--------------------||--------------------|
|------------|------------|--------------------||--------------------|
|------------|------------|--------------------||o-------------------|
|------------|------------|--------------------||--------------------|


  e   e e e e e e e   e   e e e e e e e   e   e e e e e e e   E E E E +H
|-------------------|-------------------|-------------------|----------------|
|-3b4-3-3-3-3-3-3-3-|-3b4-3-3-3-3-3-3-3-|-3b4-3-3-3-3-3-3-3-|----------------|
|-------------------|-------------------|-------------------|-------0-(0)----|
|-------------------|-------------------|-------------------|-----2----------|
|-------------------|-------------------|-------------------|---3------------|
|-------------------|-------------------|-------------------|-3--------------|


                     1.
                                       Gtrs II, III
  E E E E +E  E E E   E E E E +H        E  S S E S S E S S E +E
|-------------------|----------------|----------------------------||
|-------------------|-------3-(3)----|-(3)-----------------------o||
|-------0-(0)-------|-------2-(2)----|-(2)------------------------||
|-----2-------2-----|-----0----------|----------------------------||
|---3-----------3---|---0------------|-----3-4-5-3-4-5-3-4-5-(5)-o||
|-3---------------3-|-0--------------|----------------------------||
                                       +W


  2.
  Gtr I
  E E E E +H       Q.   E +Q   Q    E E E E +H       E E E E +E  E E E
|----------------|----------------|----------------|-------------------|
|-------3-(3)----|------3-(3)-----|----------------|-------------------|
|-------2-(2)----|------2-(2)-----|-------0-(0)----|-------0-(0)-------|
|-----0----------|------0-(0)-----|-----2----------|-----2-------2-----|
|---0------------|-------------0--|---3------------|---3-----------3---|
|-0--------------|-0--------------|-3--------------|-3---------------3-|


                 Gtr II
  E E E E +H       E S S E S S E S S E E
|----------------|------------------------|
|-3-----3-(3)----|------------------------|
|-2-----2-(2)----|------------------------|
|-----0----------|------------------------|
|---0------------|---3-4-5-3-4-5-3-4-5-5\-|
|-0--------------|------------------------|
  W


   Pre-chorus
    S   +S  S S S   +S  S S    +S   S E S   +S  S S
||------------------------------------------------------|
||o-----------------------------------------------------|
||------------------------------------------------------|
||------------------------------------------------------|
||o-----------------------------------------------------|
||--2b3r(2)-0-0-1b2r(1)-0-2b3==(2)r-0-0-1b2r(1)-0-2b3===|


                                            Ch
                                         $
   W
  +S   S E S   +S  S S    +S   S S S E E  4x
|-----------------------------------------||-|
|----------------------------------------o||-|
|-----------------------------------------||-|
|------------------------------------1-1--||-|
|------------------------------------1-1-o||-|
|-(2)r-0-0-1b2r(1)-0-2b3==(2)r-0-0-0-1-1--||-|
|
| Gtr III
|  W                                      4x
|-----------------------------------------||-|
|----------------------------------------o||-|
|-----------------------------------------||-|
|-----------------------------------------||-|
|----------------------------------------o||-|
|-----------------------------------------||-|


 orus
    D5                       F5    Bb5                          F5
    Gtr V
    H.                       Q       H                 +E   E   Q
    |                        |       |                  |   |   |
    /                        /       /                  /   /   /

    Gtr IV
    E.        S   E  S S E E E E     S   S S S S S S S  S S S S S S S S
||--5---------5---5--5-5-5-5-5-5-|---5---5-5-5-5-5-5-5--5-5-5-5-5-5-5-5---|
||o-3---------3---3--3-3-3-3-3-3-|---3---3-3-3-3-3-3-3--3-3-3-3-3-3-3-3---|
||--2----------------------------|----------------------------------------|
||--0----------------------------|----------------------------------------|
||o-0----------------------------|----------------------------------------|
||--0----------------------------|----------------------------------------|
|
|                 ~~~~~~~~~~~~~~~~~~~~~~~
|   E   E        +H.                +H                  H
||-------------------------------|----------------------------------------|
||o----13b15====(13)-------------|-(13)r----------------------------------|
||-------------------------------|----------------------------------------|
||-------------------------------|----------------------------------------|
||o------------------------------|----------------------------------------|
||-------------------------------|----------------------------------------|


  Bb5                      A5    D5
  H.                       Q     W
  |                        |     |
  /                        /     /

  S  S S S S S S S S S S S E E   S S S S S S S S S S S S S S S S
|-5--5-5-5-5-5-5-5-5-5-5-5-5-5-|-2-2-2-2-2-2-2-2-2-2-2-2-2-2-2-2-|
|-3--3-3-3-3-3-3-3-3-3-3-3-3-3-|-3-3-3-3-3-3-3-3-3-3-3-3-3-3-3-3-|
|------------------------------|---------------------------------|
|------------------------------|---------------------------------|
|------------------------------|---------------------------------|
|------------------------------|---------------------------------|


                           F5
  H.                       Q
  |                        |
  /                        /

  S  S S S S S S S S S S S E E
|-2--2-2-2-2-2-2-2-2-2-2-2-5-5--|
|-3--3-3-3-3-3-3-3-3-3-3-3-3-3--|
|-------------------------------|
|-------------------------------|
|-------------------------------|
|-------------------------------|


  Bb5                       F5
  H               +E   +E   Q
  |                |    |   |
  /                /    /   /

  S S S S S S S S  S S  S S S S S S
|-5-5-5-5-5-5-5-5--5-5--5-5-5-5-5-5-|
|-3-3-3-3-3-3-3-3--3-3--3-3-3-3-3-3-|
|-----------------------------------|
|-----------------------------------|
|-----------------------------------|
|-----------------------------------|


                                1.
  Bb5                      A5
  H.                       Q     W
  |                        |
  /                        /

  S  S S S S S S S S S S S E E   S S E S S E S S E S S E
|-5--5-5-5-5-5-5-5-5-5-5-5-5-5-|-2-----------------------|
|-3--3-3-3-3-3-3-3-3-3-3-3-3-3-|-3-----------------------|
|------------------------------|-2-----------------------|
|------------------------------|-0-----------------------|
|------------------------------|-3-4-5-3-4-5-3-4-5-3-4-5-|
|------------------------------|-------------------------|
                                 W


  S   +S  S S S   +S  S S    +S   S E S   +S  S S     +S  S e S   +S  S S    +S   S S S E E
|---------------------------------------------------|---------------------------------------|
|---------------------------------------------------|---------------------------------------|
|---------------------------------------------------|---------------------------------------|
|---------------------------------------------------|-----------------------------------1-1-|
|---------------------------------------------------|-----------------------------------1-1-|
|-2b3r(2)-0-0-1b2r(1)-0-2b3==(2)r-0-0-1b2r(1)-0-2b5-|-(2)-0-0-1b2r(1)-0-2b3==(2)r-0-0-0-1-1-|


  S   +S  S S S   +S  S S    +S   S E S   +S  S S
|-----------------------------------------------------|
|-----------------------------------------------------|
|-----------------------------------------------------|
|-----------------------------------------------------|
|-----------------------------------------------------|
|-2b3r(2)-0-0-1b2r(1)-0-2b3==(2)r-0-0-1b2r(1)-0-2b5---|


                                                      >
  +S  S e S   +S  S S    +S   S S S E E   W          +W           +W
|---------------------------------------|----------|------------|--------|
|---------------------------------------|----------|------------|--------|
|---------------------------------------|----------|------------|--------|
|-----------------------------------1-1-|-0--------|-(0)--------|-(0)----|
|-----------------------------------1-1-|-0--------|-(0)--------|-(0)----|
|-(2)-0-0-1b2r(1)-0-2b3==(2)r-0-0-0-1-1-|-0--------|-(0)--------|-(0)----|


                        2.
  W                      W
    |-3-|
  E S S S E E E E Q      S S E S S E S S E S S E
|---2h3p2p0---0-------||-2-2-2-2-2-2-2-2-2-2-2-2-|
|-----------3---1-3--o||-3-3-3-3-3-3-3-3-3-3-3-3-|
|---------------------||-2-2-2-2-2-2-2-2-2-2-2-2-|
|---------------------||-0-0-0-0-0-0-0-0-0-0-0-0-|
|--------------------o||-------------------------|
|---------------------||-------------------------|
|
| Gtr II
| W                      S S E S S E S S E S S E
|---------------------||-2-----------------------|
|--------------------o||-3-----------------------|
|---------------------||-2-----------------------|
|---------------------||-0-----------------------|
|--------------------o||-3-4-5-3-4-5-3-4-5-3-4-5-|
|---------------------||-------------------------|
                         W


  D5                      F5
  Gtr III
  S S S S S S S S S S S S S S E
  | | | | | | | | | | | | | | |
  / / / / / / / / / / / / / / /

  W
|-------------------------------|
|-------------------------------|
|-------------------------------|
|-------------------------------|
|-------------------------------|
|-------------------------------|
|
| W
|-------------------------------|
|-------------------------------|
|-------------------------------|
|-------------------------------|
|-------------------------------|
|-------------------------------|


  Bb5                   F5      Bb5                     A5
  S S S S S S S S S S E S S E   S S S S S S S S S S S S S S S S
  | | | | | | | | | | | | | |   | | | | | | | | | | | | | | | |
  / / / / / / / / / / / / / /   / / / / / / / / / / / / / / / /

  W                             W
|-----------------------------|---------------------------------|
|-----------------------------|---------------------------------|
|-----------------------------|---------------------------------|
|-----------------------------|---------------------------------|
|-----------------------------|---------------------------------|
|-----------------------------|---------------------------------|


  D5
  S S S S S S S S S S S S S S S S
  | | | | | | | | | | | | | | | |
  / / / / / / / / / / / / / / / /

  W
|-----------------------------------|
|-----------------------------------|
|-----------------------------------|
|-----------------------------------|
|-----------------------------------|
|-----------------------------------|


  D5                      F5      Bb5                   F5
  S S S S S S S S S S S S S S E   S S S S S S S S S S E S S E
  | | | | | | | | | | | | | | |   | | | | | | | | | | | | | |
  / / / / / / / / / / / / / / /   / / / / / / / / / / / / / /

  W                               W
|-------------------------------|-----------------------------|
|-------------------------------|-----------------------------|
|-------------------------------|-----------------------------|
|-------------------------------|-----------------------------|
|-------------------------------|-----------------------------|
|-------------------------------|-----------------------------|


  Bb5                     A5
  S S S S S S S S S S S S S S S S
  | | | | | | | | | | | | | | | |
  / / / / / / / / / / / / / / / /

  W
|---------------------------------|
|---------------------------------|
|---------------------------------|
|---------------------------------|
|---------------------------------|
|---------------------------------|


To Coda
                                 D
  W                               W
                                  |
                                  /

  S S E     S S E S S E S S E     S  S S S S   +S  S S   +S  S S S S   +S  S S
|-2---------------------------||-------------------------------------------------|
|-3---------------------------||-------------------------------------------------|
|-2---------------------------||-------------------------------------------------|
|-0---------------------------||-------------------------------------------------|
|-3-4-5-----3-4-5-3-4-5-3-4-5-||-------------------------------------------------|
|-----------------------------||--0--0-0-0-1b2r(1)-0-2b3r(2)-0-0-0-1b2r(1)-0-2b3r|
| W
|
| Gtr IV
|     |-3-|
| E   S S S E   E E   E E   E    +W
|-----2h3p2-0-----0-----------||-------------------------------------------------|
|---------------3-----1-3-----||-------------------------------------------------|
|---------------------------2-||-(2)---------------------------------------------|
|-----------------------------||-------------------------------------------------|
|-----------------------------||-------------------------------------------------|
|-----------------------------||-------------------------------------------------|


   S  S S S S    S  S S    S  S S S S    S  S S
   |  | | | |    |  | |    |  | | | |    |  | |
   o  / / / /    /  / /    /  / / / /    /  / /

  +S  S S S S   +S  S S   +S  S S S S   +S  S S
|----------------------------------------------------|
|----------------------------------------------------|
|----------------------------------------------------|
|----------------------------------------------------|
|----------------------------------------------------|
|-(2)-0-0-0-1b2r(1)-0-2b3r(2)-0-0-0-1b2r(1)-0-2b3r===|
|
|  W
|----------------------------------------------------|
|----------------------------------------------------|
|----------------------------------------------------|
|----------------------------------------------------|
|----------------------------------------------------|
|----------------------------------------------------|


  +S  S S S S   +S  S S   +S  S S S S   +S          S  S
|----------------------------------------------------------|
|----------------------------------------------------------|
|----------------------------------------------------------|
|----------------------------------------------------------|
|----------------------------------------------------------|
|-(2)-0-0-0-1b2r(1)-0-2b3r(2)-0-0-0-1b2r(1)---------0--2b3r|
|
|                                            \1.5   /
|  H                       Q        E        a     +E
|----------------------------------------------------------|
|----------------------------------------------------------|
|----------------------------------------------------------|
|----------------------------------------------------------|
|-------------------------------------------16----(16)-----|
|----------------------------------------------------------|


   +S  S S S S   +S  S S    +S  S S S  E  E
|-------------------------------------------|
|-------------------------------------------|
|-------------------------------------------|
|-------------------------------------------|
|-------------------------------------------|
|--(2)-0-0-0-1b2r(1)-0-2b3r=(2)-0-0-0--0----|
|
|  +H                       +Q         Q
|-------------------------------------------|
|-------------------------------------------|
|-------------------------------------------|
|-------------------------------------------|
|-(16)---------------------(16)-------------|
|-------------------------------------12\---|


   \1/         \1         /1___________|      \1   /
   Q          +E.         S    +E     +E     +S    E.
|-22---------(22)--------22---(22)---(22)---(22)--22--------|
|-21---------(21)--------21---(21)---(21)---(21)--21--------|
|-----------------------------------------------------------|
|-----------------------------------------------------------|
|-----------------------------------------------------------|
|-----------------------------------------------------------|
|
|  S   S S S   S   +S  S  S    +S  S   S  S   S   +S  S S
|-----------------------------------------------------------|
|-----------------------------------------------------------|
|-----------------------------------------------------------|
|-----------------------------------------------------------|
|-----------------------------------------------------------|
|--0---0-0-0---1b2r(1)-0--2b3r=(2)-0---0--0---1b2r(1)-0-2b3r|


              \1/             \1      /
   +Q         Q              +E.      S  +E        +E
|-(22)-------22-------------(22)-----22-(22)------(22)------||
|-(21)-------21-------------(21)-----21-(21)------(21)------||
|-----------------------------------------------------------||
|-----------------------------------------------------------||
|-----------------------------------------------------------||
|-----------------------------------------------------------||
|
|  +S  S S S  S   +S  S S    +S  S S  S   S   +S    S  S
|-----------------------------------------------------------||
|-----------------------------------------------------------||
|-----------------------------------------------------------||
|-----------------------------------------------------------||
|-----------------------------------------------------------||
|--(2)-0-0-0--1b2r(1)-0-2b3r=(2)-0-0--0---1b2r(1)---0--2b3r=||


    \1  /                       \1/         \1       /
   +S   E.      +Q              Q          +E        E
|-(22)-22------(22)------------22---------(22)------22-----|
|-(21)-21------(21)------------21---------(21)------21-----|
|----------------------------------------------------------|
|----------------------------------------------------------|
|----------------------------------------------------------|
|----------------------------------------------------------|
|
|  +S   S  S S   S   +S  S S   +S   S S S   S   +S   S S
|----------------------------------------------------------|
|----------------------------------------------------------|
|----------------------------------------------------------|
|----------------------------------------------------------|
|----------------------------------------------------------|
|--(2)--0--0-0---1b2r(1)-0-2b3r(2)--0-0-0---1b2r(1)--0-2b3r|


                  \1   /                    \1/
   +E     +E     +S    E.        +Q         Q
|-(22)---(22)---(22)--22--------(22)-------22-----|
|-(21)---(21)---(21)--21--------(21)-------21-----|
|-------------------------------------------------|
|-------------------------------------------------|
|-------------------------------------------------|
|-------------------------------------------------|
|
|  +S  S   S  S   S   +S  S S    +S  S S S  Q
|-------------------------------------------------|
|-------------------------------------------3-----|
|-------------------------------------------2-----|
|-------------------------------------------0-----|
|-------------------------------------------0-----|
|--(2)-0---0--0---1b2r(1)-0-2b3r=(2)-0-0-0--0-----|


 Guitar solo
  Gtr II
                                                              ~~~~~~
    E          +S     +S         +S     +S     +E            +Q           Q
|---------------------------------------------------------------------------------|
|---------------------------------------------------------------------------------|
|-[10]b12====([10])r([10])b12==([10])-([10])r([10])b12-----([10])-------[12]b14---|
|---------------------------------------------------------------------------------|
|---------------------------------------------------------------------------------|
|---------------------------------------------------------------------------------|
|
|   S      S    S      S          S     +S      S      S     +S   S S S   E     E
|---------------------------------------------------------------------------------|
|---------------------------------------------------------------------------------|
|---------------------------------------------------------------------------------|
|-------------------------------------------------------------------------3-----3S|
|-------------------------------------------------------------------------3-----3S|
|---0------0----0------0----------1b2r==(1)-----0------2b3r==(2)--0-0-0---3-----3S|


                ~~~~~~
   Q           +H                       S    +S  S   S
|------------------------------------------------------|
|------------------------------------------------------|
|-[9]b10======([9])r--------------------9b10r(9)p7--10-|
|------------------------------------------------------|
|------------------------------------------------------|
|------------------------------------------------------|
|
|  E      S S   S   +S  S S   +S  S S S E        E
|------------------------------------------------------|
|------------------------------------------------------|
|------------------------------------------------------|
|--8------------------------------------3--------3/----|
|--8------------------------------------3--------3/----|
|--8------0-0---1b2r(1)-0-2b3r(2)-0-0-0-3--------3/----|


                       ~~~~~
   E     a      +E    +Q              Q           +E   S  S
|-----------------------------------------------------------|
|------------------------------------10b11r======(10)--9s10-|
|--9b10r(9)b10==(9)---(9)r----------------------------------|
|-----------------------------------------------------------|
|-----------------------------------------------------------|
|-----------------------------------------------------------|
|
|  E             S  S  S   +S  S S   +S    S S S   E   E
|-----------------------------------------------------------|
|-----------------------------------------------------------|
|-----------------------------------------------------------|
|-/8-----------------------------------------------7---7\---|
|-/8-----------------------------------------------7---7\---|
|-/8-------------0--0--1b2r(1)-0-2b3r(2)---0-0-0---7---7\---|
|
| Gtr V
|  H                                  Q            E   S  S
|-----------------------------------------------------------|
|-----------------------------------------------------12h13-|
|-----------------------------------------------------10h11-|
|-----------------------------------------------------------|
|-----------------------------------------------------------|
|-----------------------------------------------------------|
   H                                  Q            E   S  S


             ~~~~~~~~~~~~~~~~~~
   Q         Q              Q         E.    S
|-12b14-----12-------------10--------12b14-10-|
|---------------------------------------------|
|---------------------------------------------|
|---------------------------------------------|
|---------------------------------------------|
|---------------------------------------------|
|
|  E    S S  S   +S  S S   +S  S S S  Q
|---------------------------------------------|
|---------------------------------------------|
|---------------------------------------------|
|---------------------------------------------|
|---------------------------------------------|
|--0----0-0--1b2r(1)-0-2b3r(2)-0-0-0-12\------|
|
|            ~~~~~~~~~~~~~~~~~~
|  Q         Q              Q         E.    S
|---------------------------------------------|
|-13b15-----13-------------12--------13b15-10-|
|-12b14-----12-------------11--------12----11-|
|---------------------------------------------|
|---------------------------------------------|
|---------------------------------------------|
   Q         Q              Q         E.    S


                 ~~~~~~
                                 |---------6---------|  |---------7---------|
  E    E        +E.         S    S   S    S  S  S    S  S  S  S  S    S  S  S
|--------------------------10---13p=12p==10-12p10------12p10----10------------|
|-----13b15====(13)r--------------------------------10-------13------13p12p10-|
|-----------------------------------------------------------------------------|
|-----------------------------------------------------------------------------|
|-----------------------------------------------------------------------------|
|-----------------------------------------------------------------------------|
|
| S S  S     S   S   +S  S  S   +S     S     S    S     E          E
|-----------------------------------------------------------------------------|
|-----------------------------------------------------------------------------|
|-----------------------------------------------------------------------------|
|-------------------------------------------------------3----------3S=========|
|-------------------------------------------------------3----------3S=========|
|-0-0--0-----0---1b2r(1)-0--2b3r(2)----0-----0----0-----3----------3S=========|


                                                                               ~~
   |----------7----------|  |-----------6------------|  |---3----|
   S  S  S  S    S  S    S  S    S      S  S  S      S  S   S    S  S  S       Q
|-----------------------------------------------------------------------------------|
|-13p12p10-12p==10------11p10----------10-----------------------------10b10.5-------|
|------------------13-----------13--------13p12p====10-12p=10------12---------------|
|---------------------------------------------------------------12------------12----|
|-----------------------------------------------------------------------------------|
|-----------------------------------------------------------------------------------|
|
|  E          S       S     S      +S      S    S      +S     S     S  S       E E
|-----------------------------------------------------------------------------------|
|-----------------------------------------------------------------------------------|
|-----------------------------------------------------------------------------------|
|--8---------------------------------------------------------------------------3-3/-|
|--8---------------------------------------------------------------------------3-3/-|
|--8----------0-------0-----1b2r===(1)-----0----2b3r===(2)----0-----0--0-------3-3/-|


   W
                                ~~~~~~
   E  E       S    E       S    Q            +E     S   S
|------------20-----------20-----------------------10--12-|
|----20b22--------20b22--------20b22========(20)r\--------|
|---------------------------------------------------------|
|---------------------------------------------------------|
|---------------------------------------------------------|
|---------------------------------------------------------|
|
|  E  S    S  S   +S    S  S   +S     S S S   E     E
|---------------------------------------------------------|
|---------------------------------------------------------|
|---------------------------------------------------------|
|-/8------------------------------------------7-----7\----|
|-/8------------------------------------------7-----7\----|
|-/8--0----0--1b2r(1)---0--2b3r(2)----0-0-0---7-----7\----|


                                  D.S. al Coda   &
                                                 D
                                                 Gtr VI
   W                                             S S E S S E S S E S S E
                                                 | | | | | | | | | | | |
                                                 / / / / / / / / / / / /

             ~~~~~~~~~~~~~~~~~~
   Q         Q              Q         E.    S    S S E S S E S S E S S E
|-12b14-----12-------------10--------12b14-10-||-------------------------|
|---------------------------------------------||-------------------------|
|---------------------------------------------||-------------------------|
|---------------------------------------------||-------------------------|
|---------------------------------------------||-3-4-5-3-4-5-3-4-5-3-4-5-|
|---------------------------------------------||-------------------------|
|
|  E    S S  S   +S  S S   +S  S S S  Q          W
|---------------------------------------------||-------------------------|
|---------------------------------------------||-------------------------|
|---------------------------------------------||-------------------------|
|---------------------------------------------||-------------------------|
|---------------------------------------------||-------------------------|
|--0----0-0--1b2r(1)-0-2b3r(2)-0-0-0-12\------||-------------------------|


  H.=H
                            D5
  S S E S S E S S E S S E   W
  | | | | | | | | | | | |   |
  / / / / / / / / / / / /   /

  S S E S S E S S E S S E   W
|-------------------------|------*|
|-------------------------|------*|
|-------------------------|------*|
|-------------------------|-0----*|
|-3-4-5-3-4-5-3-4-5-3-4-5-|-0----*|
|-------------------------|-0----*|



Duration Legend
---------------
W - whole; H - half; Q - quarter; E - 8th; S - 16th; T - 32nd; X - 64th; a - acciaccatura
+ - note tied to previous; . - note dotted; .. - note double dotted
Uncapitalized letters represent notes that are staccato (1/2 duration)
Irregular groupings are notated above the duration line
Duration letters will always appear directly above the note/fret number it represents the
duration for.  Duration letters with no fret number below them represent rests.  Multi-
bar rests are notated in the form Wxn, where n is the number of bars to rest for.  Low
melody durations appear below the staff

Tablature Legend
----------------
 h   - hammer-on
 p   - pull-off
 b   - bend
 pb  - pre-bend
 r   - bend release (if no number after the r, then release immediately)
 /\  - slide into or out of (from/to "nowhere")
 s   - legato slide
 S   - shift slide
 - natural harmonic
[n]  - artificial harmonic
n(n) - tapped harmonic
 ~   - vibrato
 tr  - trill
 T   - tap
 TP  - trem. picking
 PM  - palm muting
\n/  - tremolo bar dip; n = amount to dip
 \n  - tremolo bar down
 n/  - tremolo bar up
/n\  - tremolo bar inverted dip
 =   - hold bend; also acts as connecting device for hammers/pulls
 <> - volume swell (louder/softer)
 x   - on rhythm slash represents muted slash
 o   - on rhythm slash represents single note slash

Misc Legend
-----------
 |  - bar
||  - double bar
||o - repeat start
o|| - repeat end
*|  - double bar (ending)
 :  - bar (freetime)
 $  - Segno
 &  - Coda
Tempo markers -  = BPM(8/16=s8/s16), where s8 = swing 8ths, s16 = swing 16ths

Tap to rate this tab
 
# A B C D E F G H I J K L M N O P Q R S T U V W X Y Z