Song name
# A B C D E F G H I J K L M N O P Q R S T U V W X Y Z

Anthrax - Im Alive tab

Anthrax
I'm Alive
Worship Music
2011

Tuning : Drop C#

Intro


|--------------------------------------|
|---6---5---3---3---3---3---3---3------|
|---7---5---3---2---3---2---1---2------|
|---0---0---0---0---0---0---0---0------|
|--------------------------------------|
|--------------------------------------|


|------------------------------------------|
|------------------------------------------|
|------------------------------------------|
|------------------------------------------|
|-0-0-0-0-0-0--0-0----0-0-0---0-0-0-0-0-0-0|
|-0-0-0-0-0-0--0-0----0-0-0---0-0-0-0-0-0-0|
  + + + + + +  + +    + + +   + + + + + + + 

After Intro:
|------------------------------------------|
|------------------------------------------|
|------------------------------------------|
|------------------------------------------| X4
|-0-0-0-0-0-0--0-0----0-0-0---0-0-0-0-0-0-0|
|-0-0-0-0-0-0--0-0----0-0-0---0-0-0-0-0-0-0|
  + + + + + +  + +    + + +   + + + + + + + 

During the 4th time^
|-1-------------|
|---3---------3-|
|-----2-----2---|
|-------3-0-----|
|---------------|
|---------------|

|------------------------------------------------------------------|
|------------------------------------------------------------------|
|------------------------------------------------------------------|
|-----------------------8------------------------------------------| X2
|-----------------------0------------------------------------------|
|-0-0-0-0-0-0--3-0----0-8-0---0-3-0--0-8-8-8-8-8-8-3-0---0-5-0--0-0|
  + + + + + +  + +    + + +   + + +  +             + +   + + +  + +

Tap to rate this tab
# A B C D E F G H I J K L M N O P Q R S T U V W X Y Z