Guitaretab - guitar tabs
Song name
# A B C D E F G H I J K L M N O P Q R S T U V W X Y Z

Anthrax - Potters Field tab

#----------------------------------PLEASE NOTE---------------------------------#
#This file is the author's own work and represents their interpretation of the #
#song. You may only use this file for private study, scholarship, or research. #
#------------------------------------------------------------------------------#

POTTER'S FIELD
As recorded by Anthrax
(From the 1993 Album SOUND OF WHITE NOISE)

Transcribed by Mike Sheehan
	

Words and Music by Charlie Benante, Scott Ian & John Bush

F5
1 3 x x x x
	
F#5
2 4 x x x x
	
G5
3 5 x x x x
	
A5
5 7 x x x x

Gtr I (E A D G B E) - 'Scott Ian'
Gtr II (E A D G B E) - 'Dan Spitz'
Gtr III (E A D G B E) - 'Untitled'

 Intro
  Q=188
  F#5
 4/4
  Gtr I
  PM----|     PM----|       PM----|     PM----|
  S S S S e E S S S S e E   S S S S e E S S S S e E
|-------------------------|-------------------------|
|-------------------------|-------------------------|
|-------------------------|-------------------------|
|-------------------------|-------------------------|
|-4-4-4-4-4---4-4-4-4-4---|-4-4-4-4-4---4-4-4-4-4---|
|-2-2-2-2-2---2-2-2-2-2---|-2-2-2-2-2---2-2-2-2-2---|


  PM----|     PM----|       PM----|     PM----|
  S S S S e E S S S S e E   S S S S e E S S S S e E
|-------------------------|--------------------------|
|-------------------------|--------------------------|
|-------------------------|--------------------------|
|-------------------------|--------------------------|
|-4-4-4-4-4---4-4-4-4-4---|-4-4-4-4-4---4-4-4-4-4----|
|-2-2-2-2-2---2-2-2-2-2---|-2-2-2-2-2---2-2-2-2-2----|


    Gtr I
    PM--------------------------------------------------------------|
    S S S S S S S S S S S S S S S S   S S S S S S S S S S S S S S S S  4x
||----------------------------------|----------------------------------||
||o---------------------------------|---------------------------------o||
||----------------------------------|----------------------------------||
||----------------------------------|----------------------------------||
||o---------------------------------|---------------------------------o||
||--2-2-2-2-3-3-3-3-2-2-2-2-3-3-3-3-|-2-2-2-2-3-3-3-3-2-2-2-2-3-3-3-3--||
|
|   Gtr II
|   E   E   Q       E   E   Q         E   E   Q       E   E   Q        4x
||----------------------------------|----------------------------------||
||o---------------------------------|---------------------------------o||
||----------------------------------|----------------------------------||
||----------------------------------|----------------------------------||
||o-4---4-----------4---4-----------|-4---4-----------4---4-----------o||
||--2---2-----------2---2-----------|-2---2-----------2---2------------||


    Gtr I
    PM-------------------------------------------------------------------
    S S S S S S S S S S S S S S S S    S  S S S S S S S S S S S S S S S
||----------------------------------|-----------------------------------|
||o---------------------------------|-----------------------------------|
||----------------------------------|-----------------------------------|
||----------------------------------|-----------------------------------|
||o---------------------------------|-----------------------------------|
||--2-2-2-2-3-3-3-3-2-2-2-2-3-3-3-3-|--2--2-2-2-3-3-3-3-2-2-2-2-3-3-3-3-|
|
|   Gtr II
|   E   E   Q       E   E   Q          E    E   Q       E   E   Q
||----------------------------------|-----------------------------------|
||o---------------------------------|-----------------------------------|
||----------------------------------|-----------------------------------|
||----------------------------------|-----------------------------------|
||o-4---4-----------4---4-----------|--4----4-----------4---4-----------|
||--2---2-----------2---2-----------|--2----2-----------2---2-----------|
|
|   Gtr III
|   W                                 +W
||----------------------------------|-----------------------------------|
||o---------------------------------|-----------------------------------|
||----------------------------------|-----------------------------------|
||----------------------------------|-----------------------------------|
||o-4-------------------------------|-(4)-------------------------------|
||--2-------------------------------|-(2)-------------------------------|


 -------------------------------|
  S S S S S S S S S S S S S S S S
|------------------------------------|
|------------------------------------|
|------------------------------------|
|------------------------------------|
|------------------------------------|
|-2-2-2-2-3-3-3-3-2-2-2-2-3-3-3-3----|
|
| E   E   Q       E   E   Q
|------------------------------------|
|------------------------------------|
|------------------------------------|
|------------------------------------|
|-4---4-----------4---4--------------|
|-2---2-----------2---2--------------|
|
| W
|------------------------------------|
|------------------------------------|
|------------------------------------|
|------------------------------------|
|-5----------------------------------|
|-3----------------------------------|


   PM-----------------------------|
   S  S S S S S S S S S S S S S S S     E E Q  E E Q    E E Q    H
|------------------------------------||---------------|----------------||
|-----------------------------------o||---------------|----------------||
|------------------------------------||---------------|----------------||
|------------------------------------||---------------|----------------||
|-----------------------------------o||-4-4----4-4----|-4-4------------||
|--2--2-2-2-3-3-3-3-2-2-2-2-3-3-3-3--||-2-2----2-2----|-2-2----/12\----||
|
|  E    E   Q       E   E   Q           E E Q  E E Q    E E Q    H
|------------------------------------||---------------|----------------||
|-----------------------------------o||---------------|----------------||
|------------------------------------||---------------|----------------||
|------------------------------------||---------------|----------------||
|--4----4-----------4---4-----------o||-4-4----4-4----|-4-4------------||
|--2----2-----------2---2------------||-2-2----2-2----|-2-2----/12\----||
|
| +W                                    W               W
|------------------------------------||---------------|----------------||
|-----------------------------------o||---------------|----------------||
|------------------------------------||---------------|----------------||
|------------------------------------||---------------|----------------||
|-(5)-------------------------------o||---------------|----------------||
|-(3)--------------------------------||---------------|----------------||


   Verse
    N.C.    F5F#5    F5F#5  F5F#5    N.C.    F5F#5    F5F#5  F5F#5
    Gtrs I, II
    E E E E E E Q    E E Q  E E Q    E E E E E E Q    E E Q  E E Q
||-----------------|---------------|----------------|----------------||
||o----------------|---------------|----------------|---------------o||
||-----------------|---------------|----------------|----------------||
||-----------------|---------------|----------------|----------------||
||o---2-0---3-4----|-3-4----3-4----|---2-0---3-4----|-3-4----3-4----o||
||--2-----0-1-2----|-1-2----1-2----|-2-----0-1-2----|-1-2----1-2-----||


  N.C.    G5                      N.C.    F5F#5    F5F#5  F5F#5
  Gtr I
  E E E E Q  Q     Q   Q  Q  Q    E E E E E E Q    E E Q  E E Q
|---------------|---------------|----------------|----------------|
|---------------|---------------|----------------|----------------|
|---------------|---------------|----------------|----------------|
|---------------|---------------|----------------|----------------|
|---2-0---5--5--|--5---5--5--5--|---2-0---3-4----|-3-4----3-4-----|
|-2-----0-3--3--|--3---3--3--3--|-2-----0-1-2----|-1-2----1-2-----|
|
| Gtr II
| E E E E H       +W              E E E E E E Q    E E Q  E E Q
|---------------|---------------|----------------|----------------|
|---------------|---------------|----------------|----------------|
|---------------|---------------|----------------|----------------|
|---------------|---------------|----------------|----------------|
|---2-0---5-----|-(5)-----------|---2-0---3-4----|-3-4----3-4-----|
|-2-----0-3-----|-(3)-----------|-2-----0-1-2----|-1-2----1-2-----|


  N.C.    G5              A5      F5F#5  F5F#5    F5F#5  N.C.
  E E E E Q  Q     Q   Q  H       E E Q  E E Q    E E Q  E E E E
|---------------|---------------|---------------|-----------------|
|---------------|---------------|---------------|-----------------|
|---------------|---------------|---------------|-----------------|
|---------------|---------------|---------------|-----------------|
|---2-0---5--5--|--5---5--7\----|-3-4----3-4----|-3-4------2-0----|
|-2-----0-3--3--|--3---3--5\----|-1-2----1-2----|-1-2----2-----0--|
|
| E E E E H       +H      H       E E Q  E E Q    E E Q  E E E E
|---------------|---------------|---------------|-----------------|
|---------------|---------------|---------------|-----------------|
|---------------|---------------|---------------|-----------------|
|---------------|---------------|---------------|-----------------|
|---2-0---5-----|-(5)-----7\----|-3-4----3-4----|-3-4------2-0----|
|-2-----0-3-----|-(3)-----5\----|-1-2----1-2----|-1-2----2-----0--|


  G5                    N.C.      F5F#5  F5F#5    F5F#5  N.C.
  Q  Q  Q  Q     Q   Q  E E E E   E E Q  E E Q    E E Q  E E E E
|-------------|-----------------|---------------|-----------------|
|-------------|-----------------|---------------|-----------------|
|-------------|-----------------|---------------|-----------------|
|-------------|-----------------|---------------|-----------------|
|-5--5--5--5--|--5---5----2-0---|-3-4----3-4----|-3-4------2-0----|
|-3--3--3--3--|--3---3--2-----0-|-1-2----1-2----|-1-2----2-----0--|
|
| W             +H      E E E E   E E Q  E E Q    E E Q  E E E E
|-------------|-----------------|---------------|-----------------|
|-------------|-----------------|---------------|-----------------|
|-------------|-----------------|---------------|-----------------|
|-------------|-----------------|---------------|-----------------|
|-5-----------|-(5)-------2-0---|-3-4----3-4----|-3-4------2-0----|
|-3-----------|-(3)-----2-----0-|-1-2----1-2----|-1-2----2-----0--|


  G5                    A5      F#5
  Q  Q  Q  Q     Q   Q  H       q  q  q  q    q  q  q  q
|-------------|---------------|-------------|--------------|
|-------------|---------------|-------------|--------------|
|-------------|---------------|-------------|--------------|
|-------------|---------------|-------------|--------------|
|-5--5--5--5--|--5---5--7\----|-4--4--4--4--|-4--4--4--4---|
|-3--3--3--3--|--3---3--5\----|-2--2--2--2--|-2--2--2--2---|
|
| W             +H      H       q  q  q  q    q  q  q  q
|-------------|---------------|-------------|--------------|
|-------------|---------------|-------------|--------------|
|-------------|---------------|-------------|--------------|
|-------------|---------------|-------------|--------------|
|-5-----------|-(5)-----7\----|-4--4--4--4--|-4--4--4--4---|
|-3-----------|-(3)-----5\----|-2--2--2--2--|-2--2--2--2---|


                      N.C.      F5F#5  F5F#5    F5  F#5  N.C.
  q  q  q  q    q  q  E E E E   E E Q  E E Q     E  E Q  E E E E
|-------------|---------------|---------------|-------------------|
|-------------|---------------|---------------|-------------------|
|-------------|---------------|---------------|-------------------|
|-------------|---------------|---------------|-------------------|
|-4--4--4--4--|-4--4----2-0---|-3-4----3-4----|--3--4------2-0----|
|-2--2--2--2--|-2--2--2-----0-|-1-2----1-2----|--1--2----2-----0--|
|
| q  q  q  q    q  q  E E E E   W               +W
|-------------|---------------|---------------|-------------------|
|-------------|---------------|---------------|-------------------|
|-------------|---------------|---------------|-------------------|
|-------------|---------------|---------------|-------------------|
|-4--4--4--4--|-4--4----2-0---|-4-------------|-(4)---------------|
|-2--2--2--2--|-2--2--2-----0-|-2-------------|-(2)---------------|


  F5F#5  F5F#5    F5  F#5  N.C.      F5F#5  F5F#5    F5  F#5  N.C.
  E E Q  E E Q     E  E Q  E E E E   E E Q  E E Q     E  E Q  E E E E
|---------------|------------------|---------------|-------------------|
|---------------|------------------|---------------|-------------------|
|---------------|------------------|---------------|-------------------|
|---------------|------------------|---------------|-------------------|
|-3-4----3-4----|--3--4------2-0---|-3-4----3-4----|--3--4------2-0----|
|-1-2----1-2----|--1--2----2-----0-|-1-2----1-2----|--1--2----2-----0--|
|
| W               +W                 W               +W
|---------------|------------------|---------------|-------------------|
|---------------|------------------|---------------|-------------------|
|---------------|------------------|---------------|-------------------|
|---------------|------------------|---------------|-------------------|
|-5-------------|-(5)--------------|-4-------------|-(4)---------------|
|-3-------------|-(3)--------------|-2-------------|-(2)---------------|


  F5F#5  F5F#5    F5  F#5  N.C.      G5                    N.C.
  E E Q  E E Q     E  E Q  E E E E   Q  Q  Q  Q     Q   Q  E E E E
|---------------|------------------|-------------|------------------|
|---------------|------------------|-------------|------------------|
|---------------|------------------|-------------|------------------|
|---------------|------------------|-------------|------------------|
|-3-4----3-4----|--3--4------2-0---|-5--5--5--5--|--5---5----2-0----|
|-1-2----1-2----|--1--2----2-----0-|-3--3--3--3--|--3---3--2-----0--|
|
| W               +W                 W             +H      E E E E
|---------------|------------------|-------------|------------------|
|---------------|------------------|-------------|------------------|
|---------------|------------------|-------------|------------------|
|---------------|------------------|-------------|------------------|
|-5-------------|-(5)--------------|-5-----------|-(5)-------2-0----|
|-3-------------|-(3)--------------|-3-----------|-(3)-----2-----0--|


  F5F#5  F5F#5    F5F#5  N.C.      G5                    A5
  E E Q  E E Q    E E Q  E E E E   Q  Q  Q  Q     Q   Q  H
|---------------|----------------|-------------|---------------|
|---------------|----------------|-------------|---------------|
|---------------|----------------|-------------|---------------|
|---------------|----------------|-------------|---------------|
|-3-4----3-4----|-3-4------2-0---|-5--5--5--5--|--5---5--7\----|
|-1-2----1-2----|-1-2----2-----0-|-3--3--3--3--|--3---3--5\----|
|
| E E Q  E E Q    E E Q  E E E E   W             +H      H
|---------------|----------------|-------------|---------------|
|---------------|----------------|-------------|---------------|
|---------------|----------------|-------------|---------------|
|---------------|----------------|-------------|---------------|
|-3-4----3-4----|-3-4------2-0---|-5-----------|-(5)-----7\----|
|-1-2----1-2----|-1-2----2-----0-|-3-----------|-(3)-----5\----|


  F5F#5  F5F#5    F5F5   N.C.      G5                    N.C.
  E E Q  E E Q    E E Q  E E E E   Q  Q  Q  Q     Q   Q  E E E E
|---------------|----------------|-------------|------------------|
|---------------|----------------|-------------|------------------|
|---------------|----------------|-------------|------------------|
|---------------|----------------|-------------|------------------|
|-3-4----3-4----|-3-4------2-0---|-5--5--5--5--|--5---5----2-0----|
|-1-2----1-2----|-1-2----2-----0-|-3--3--3--3--|--3---3--2-----0--|
|
| E E Q  E E Q    E E Q  E E E E   W             +H      E E E E
|---------------|----------------|-------------|------------------|
|---------------|----------------|-------------|------------------|
|---------------|----------------|-------------|------------------|
|---------------|----------------|-------------|------------------|
|-3-4----3-4----|-3-4------2-0---|-5-----------|-(5)-------2-0----|
|-1-2----1-2----|-1-2----2-----0-|-3-----------|-(3)-----2-----0--|


  F5F#5  F5F#5    F5F#5  N.C.      G5                    A5
  E E Q  E E Q    E E Q  E E E E   Q  Q  Q  Q     Q   Q  H
|---------------|----------------|-------------|---------------|
|---------------|----------------|-------------|---------------|
|---------------|----------------|-------------|---------------|
|---------------|----------------|-------------|---------------|
|-3-4----3-4----|-3-4------2-0---|-5--5--5--5--|--5---5--7\----|
|-1-2----1-2----|-1-2----2-----0-|-3--3--3--3--|--3---3--5\----|
|
| E E Q  E E Q    E E Q  E E E E   W             +H      H
|---------------|----------------|-------------|---------------|
|---------------|----------------|-------------|---------------|
|---------------|----------------|-------------|---------------|
|---------------|----------------|-------------|---------------|
|-3-4----3-4----|-3-4------2-0---|-5-----------|-(5)-----7\----|
|-1-2----1-2----|-1-2----2-----0-|-3-----------|-(3)-----5\----|


  F#5
  Gtrs I, II
  q  q  q  q    q  q  q  q    q  q  q  q
|-------------|-------------|-------------|
|-------------|-------------|-------------|
|-------------|-------------|-------------|
|-------------|-------------|-------------|
|-4--4--4--4--|-4--4--4--4--|-4--4--4--4--|
|-2--2--2--2--|-2--2--2--2--|-2--2--2--2--|


           N.C.      F#5
           PM----|
  q  q  q  S S S S   q  q  q  q    q  q  q  q
|------------------|-------------|---------------|
|------------------|-------------|---------------|
|------------------|-------------|---------------|
|------------------|-------------|---------------|
|-4--4--4----------|-4--4--4--4--|-4--4--4--4----|
|-2--2--2--0-0-0-0-|-2--2--2--2--|-2--2--2--2----|


                              Pre Chorus
                            Q=200
                               $
                               N.C.
                                 ~~     ~~       ~~     ~~
  q  q  q  q    q  q  q  q     E Q.   E Q.     E Q.   E Q.
|-------------|-------------||---------------|----------------|
|-------------|-------------||---------------|----------------|
|-------------|-------------||---------------|----------------|
|-------------|-------------||---------------|----------------|
|-4--4--4--4--|-4--4--4--4--||---------------|----------------|
|-2--2--2--2--|-2--2--2--2--||-2-5----2-5----|-2-5----2-5-----|


  F#5                    N.C.      F#5
                         PM----|
  q  q  q  q    q  q  q  S S S S   q  q  q  q    q  q  q  q
|-------------|------------------|-------------|--------------|
|-------------|------------------|-------------|--------------|
|-------------|------------------|-------------|--------------|
|-------------|------------------|-------------|--------------|
|-4--4--4--4--|-4--4--4----------|-4--4--4--4--|-4--4--4--4---|
|-2--2--2--2--|-2--2--2--0-0-0-0-|-2--2--2--2--|-2--2--2--2---|


  N.C.                            F#5                    N.C.
    ~~     ~~       ~~     ~~                            PM----|
  E Q.   E Q.     E Q.   E Q.     q  q  q  q    q  q  q  S S S S
|---------------|---------------|-------------|-------------------|
|---------------|---------------|-------------|-------------------|
|---------------|---------------|-------------|-------------------|
|---------------|---------------|-------------|-------------------|
|---------------|---------------|-4--4--4--4--|-4--4--4-----------|
|-2-5----2-5----|-2-5----2-5----|-2--2--2--2--|-2--2--2--0-0-0-0--|


  F#5                         N.C.
                                ~~     ~~       ~~     ~~
  q  q  q  q    q  q  q  q    E Q.   E Q.     E Q.   E Q.
|-------------|-------------|---------------|----------------||
|-------------|-------------|---------------|----------------||
|-------------|-------------|---------------|----------------||
|-------------|-------------|---------------|----------------||
|-4--4--4--4--|-4--4--4--4--|---------------|----------------||
|-2--2--2--2--|-2--2--2--2--|-2-5----2-4----|-2-3----2-0-----||


 Chorus
  Gtr I
  PM----|     PM----|
  S S S S E E S S S S E E
|-------------------------|
|-------------------------|
|-------------------------|
|-------------------------|
|-------------------------|
|-2-2-2-2-2---2-2-2-2-2---|
|
| Gtr II
| W
|-------------------------|
|-------------------------|
|-------------------------|
|-------------------------|
|-4-----------------------|
|-------------------------|


   PM-----|     PM----|       PM----|     PM----|
   S  S S S E E S S S S E E   S S S S E E S S S S E E
|---------------------------|-------------------------|
|---------------------------|-------------------------|
|---------------------------|-------------------------|
|---------------------------|-------------------------|
|---------------------------|-------------------------|
|--2--2-2-2-2---2-2-2-2-2---|-2-2-2-2-2---2-2-2-2-2---|
|
| +H            Q       Q     W
|---------------------------|-------------------------|
|---------------------------|-------------------------|
|---------------------------|-------------------------|
|---------------------------|-------------------------|
|-(4)-----------4-------4---|-5-----------------------|
|---------------------------|-------------------------|

[ Tab from: http://www.guitaretab.com/a/anthrax/122453.html ]
   PM-----|     PM----|
   S  S S S E E S S S S E E
|---------------------------|
|---------------------------|
|---------------------------|
|---------------------------|
|---------------------------|
|--2--2-2-2-2---2-2-2-2-2---|
|
| +H            Q       Q
|---------------------------|
|---------------------------|
|---------------------------|
|---------------------------|
|-(5)-----------5-------5---|
|---------------------------|


  PM----|     PM----|        PM-----|     PM----|
  S S S S E E S S S S E E    S  S S S E E S S S S E E
|-------------------------|---------------------------|
|-------------------------|---------------------------|
|-------------------------|---------------------------|
|-------------------------|---------------------------|
|-------------------------|---------------------------|
|-2-2-2-2-2---2-2-2-2-2---|--2--2-2-2-2---2-2-2-2-2---|
|
| W                         +H            Q       Q
|-------------------------|---------------------------|
|-------------------------|---------------------------|
|-------------------------|---------------------------|
|-------------------------|---------------------------|
|-6-----------------------|-(6)-----------6-------6---|
|-------------------------|---------------------------|


  PM----|     PM----|
  S S S S E E S S S S E E
|-------------------------|
|-------------------------|
|-------------------------|
|-------------------------|
|-------------------------|
|-2-2-2-2-2---2-2-2-2-2---|
|
| W
|-------------------------|
|-------------------------|
|-------------------------|
|-------------------------|
|-5-----------------------|
|-------------------------|


   PM-----|     PM-----|       PM----|     PM----|
   S  S S S E E S  S S S E E   S S S S E E S S S S E E
|----------------------------|-------------------------|
|----------------------------|-------------------------|
|----------------------------|-------------------------|
|----------------------------|-------------------------|
|----------------------------|-------------------------|
|--2--2-2-2-2---2--2-2-2-2---|-2-2-2-2-2---2-2-2-2-2---|
|
| +H            H              W
|----------------------------|-------------------------|
|----------------------------|-------------------------|
|----------------------------|-------------------------|
|----------------------------|-------------------------|
|-(5)-----------5\-----------|-4-----------------------|
|----------------------------|-------------------------|


   PM-----|     PM-----|
   S  S S S E E S  S S S E E
|----------------------------|
|----------------------------|
|----------------------------|
|----------------------------|
|----------------------------|
|--2--2-2-2-2---2--2-2-2-2---|
|
| +H            H
|----------------------------|
|----------------------------|
|----------------------------|
|----------------------------|
|-(4)-----------4/-----------|
|----------------------------|


  PM----|     PM----|        PM-----|     PM-----|
  S S S S E E S S S S E E    S  S S S E E S  S S S E E
|-------------------------|----------------------------|
|-------------------------|----------------------------|
|-------------------------|----------------------------|
|-------------------------|----------------------------|
|-------------------------|----------------------------|
|-2-2-2-2-2---2-2-2-2-2---|--2--2-2-2-2---2--2-2-2-2---|
|
| W                         +H            H
|-------------------------|----------------------------|
|-------------------------|----------------------------|
|-------------------------|----------------------------|
|-------------------------|----------------------------|
|-5-----------------------|-(5)-----------5/-----------|
|-------------------------|----------------------------|


  PM----|     PM----|
  S S S S E E S S S S E E
|-------------------------|
|-------------------------|
|-------------------------|
|-------------------------|
|-------------------------|
|-2-2-2-2-2---2-2-2-2-2---|
|
| W
|-------------------------|
|-------------------------|
|-------------------------|
|-------------------------|
|-6-----------------------|
|-------------------------|


   PM-----|     PM-----|       PM----|     PM----|
   S  S S S E E S  S S S E E   S S S S E E S S S S E E
|----------------------------|-------------------------|
|----------------------------|-------------------------|
|----------------------------|-------------------------|
|----------------------------|-------------------------|
|----------------------------|-------------------------|
|--2--2-2-2-2---2--2-2-2-2---|-2-2-2-2-2---2-2-2-2-2---|
|
| +H            H              W
|----------------------------|-------------------------|
|----------------------------|-------------------------|
|----------------------------|-------------------------|
|----------------------------|-------------------------|
|-(6)-----------6/-----------|-7-----------------------|
|----------------------------|-------------------------|


   PM-----|     PM-----|       PM----|     PM----|
   S  S S S E E S  S S S E E   S S S S E E S S S S E E
|----------------------------|-------------------------|
|----------------------------|-------------------------|
|----------------------------|-------------------------|
|----------------------------|-------------------------|
|----------------------------|-------------------------|
|--2--2-2-2-2---2--2-2-2-2---|-2-2-2-2-2---2-2-2-2-2---|
|
|                              ~~~~~~~~~~~~~~~~~~~~~~~~~
| +H            H              W
|----------------------------|-------------------------|
|----------------------------|-------------------------|
|----------------------------|-------------------------|
|----------------------------|-------------------------|
|-(7)-----------7/-----------|-9-----------------------|
|----------------------------|-------------------------|


                     To Coda
   PM-----|     PM----|
   S  S S S E E S S S S E E
|------------------------------|
|------------------------------|
|------------------------------|
|------------------------------|
|------------------------------|
|--2--2-2-2-2---2-2-2-2-2------|
|
|~~~~~
| +W
|------------------------------|
|------------------------------|
|------------------------------|
|------------------------------|
|-(9)--------------------------|
|------------------------------|


   PM-----|     PM----|        PM-----------------------------|
   S  S S S E E S S S S E E    S  S S S S S S S S S S S S S S S
|---------------------------|------------------------------------||
|---------------------------|------------------------------------||
|---------------------------|------------------------------------||
|---------------------------|------------------------------------||
|---------------------------|------------------------------------||
|--2--2-2-2-2---2-2-2-2-2---|--2--2-2-2-2-2-2-2-2-2-2-2-2-2-2-2--||
|
|  ~~~~~~~~~~~~~~~~~~~~~~~~~~~~~~~
| +W                          +W
|---------------------------|------------------------------------||
|---------------------------|------------------------------------||
|---------------------------|------------------------------------||
|---------------------------|------------------------------------||
|-(9)-----------------------|-(9)--------------------------------||
|---------------------------|------------------------------------||


 Guitar Solo
  Gtr I
      ~~~      ~~~        ~~~      ~~~
   E  Q.    E  Q.      E  Q.    E  Q.
|-------------------|---------------------|
|-------------------|---------------------|
|-------------------|---------------------|
|-------------------|---------------------|
|-------------------|---------------------|
|--2--5-----2--5----|--2--5-----2--5------|
|
| Gtr II
|  E  Q.    E  Q.      E  Q.    E  Q    E
|-------------------|------------------14-|
|----14-------14----|----14-------14------|
|----14-------14----|----14-------14------|
|-16-------16-------|-16-------16---------|
|-------------------|---------------------|
|-------------------|---------------------|


  F#5
   q     q    q    q          q     q  q  q
|--------------------------|-----------------|
|--------------------------|-----------------|
|--------------------------|-----------------|
|--------------------------|-----------------|
|--4-----4----4----4-------|--4-----4--4--4--|
|--2-----2----2----2-------|--2-----2--2--2--|
|
|                             ~~~~~
|                  |--3--|
|  H         +Q    E  E  E    W
|-----------------14-------|-----------------|
|-17b19-----(17)-----17-14-|-17b19-----------|
|--------------------------|-----------------|
|--------------------------|-----------------|
|--------------------------|-----------------|
|--------------------------|-----------------|


  N.C.                N.C.
      ~~~      ~~~        ~~~      ~~~
   E  Q.    E  Q.      E  Q.    E  Q.
|-------------------|---------------------|
|-------------------|---------------------|
|-------------------|---------------------|
|-------------------|---------------------|
|-------------------|---------------------|
|--2--5-----2--5----|--2--5-----2--5------|
|
|  E  Q.    E  Q.      E  Q.    E  Q    E
|-------------------|------------------14-|
|----14-------14----|----14-------14------|
|----14-------14----|----14-------14------|
|-16-------16-------|-16-------16---------|
|-------------------|---------------------|
|-------------------|---------------------|


  F#5
   q        q     q             q          q        q     q  q
|---------------------------------------|-----------------------|
|---------------------------------------|-----------------------|
|---------------------------------------|-----------------------|
|---------------------------------------|-----------------------|
|--4--------4-----4-------------4-------|--4--------4-----4--4--|
|--2--------2-----2-------------2-------|--2--------2-----2--2--|
|
|                                                         ~~
|                 |----3-----|
|  E     E  E  E  E     +E   E  E     E    E  E     E  E  H
|----------14---------------------------|-----------------------|
|-------14----17-17b19r(17)-14-------14-|-----------------------|
|-16b18------------------------16b18----|-16-14b16--------------|
|---------------------------------------|----------16-14-16-----|
|---------------------------------------|-----------------------|
|---------------------------------------|-----------------------|


  N.C.
      ~~~      ~~~        ~~~     ~~
   E  Q.    E  Q.      E  Q.    E Q.
|-------------------|------------------|
|-------------------|------------------|
|-------------------|------------------|
|-------------------|------------------|
|-------------------|------------------|
|--2--5-----2--4----|--2--3-----2-0----|
|
|  E  Q.    E  Q.      E  Q.    E Q.
|-------------------|------------------|
|-------------------|------------------|
|----14-------13----|----12-------x----|
|-16-------16-------|-16-------16------|
|-------------------|------------------|
|-------------------|------------------|


  F#5
   q      q   q     q       q             q     q        q
|------------------------|---------------------------------------|
|------------------------|---------------------------------------|
|------------------------|---------------------------------------|
|------------------------|---------------------------------------|
|--4------4---4-----4----|--4-------------4-----4--------4-------|
|--2------2---2-----2----|--2-------------2-----2--------2-------|
|
|  S  E.  Q   E  E  E  E    S     +S   E  E  E  S  S  E  S  S  E
|------------------------|---------------------------------------|
|------------------------|---------------------------------------|
|------------14----14-16-|-16b18r(16)p14----16-14h16p14----------|
|-16p14--16-----16-------|---------------16-------------14h16p14-|
|------------------------|---------------------------------------|
|------------------------|---------------------------------------|


  N.C.
              ~~~          ~~~
   E          Q.        E  Q.
|-------------------------------------------|
|-------------------------------------------|
|-------------------------------------------|
|-------------------------------------------|
|-------------------------------------------|
|--2----------5---------2--5----------------|
|
|                              |----3-----|
|  S     +S   E   E  E  E  E   E     +E   E
|-------------------------------------------|
|-------------------------------------------|
|-16b18r(16)p14-----14-16-16--16b18r(16)p14-|
|----------------16-------------------------|
|-------------------------------------------|
|-------------------------------------------|


                                         F#5
      ~~~                     ~~~
   E  Q.             E        Q.          q   q   q     q       q   q     q  q
|--------------------------------------|---------------------|------------------||
|--------------------------------------|---------------------|------------------||
|--------------------------------------|---------------------|------------------||
|--------------------------------------|---------------------|------------------||
|--------------------------------------|--4---4---4-----4----|--4---4-----4--4--||
|--2--5--------------2--------5--------|--2---2---2-----2----|--2---2-----2--2--||
|
|                                         ~~~~~~                ~~        ~~
|  E  E   E  E      +S   +S   E   E  E    Q   Q   E  E  E  E    Q   E  E  H
|--------------------------------------|---------------------|------------------||
|--------------------------------------|---------------------|------------------||
|----14--16-16b18==(16)r(16)p14-----14-|---------------------|------------------||
|-16-----------------------------16----|-16--14--------------|------------------||
|--------------------------------------|---------16S14-12-14-|-12---------------||
|--------------------------------------|---------------------|-----14-12-14-----||


  Gtrs I, II
  PM----|     PM----|       PM----|     PM----|
  S S S S e E S S S S e E   S S S S e E S S S S e E   E E Q  E E Q
|-------------------------|-------------------------|---------------|
|-------------------------|-------------------------|---------------|
|-------------------------|-------------------------|---------------|
|-------------------------|-------------------------|---------------|
|-4-4-4-4-4---4-4-4-4-4---|-4-4-4-4-4---4-4-4-4-4---|-4-4----4-4----|
|-2-2-2-2-2---2-2-2-2-2---|-2-2-2-2-2---2-2-2-2-2---|-2-2----2-2----|


  E E Q  E E Q    E E Q  E E Q    E Q.     H
|---------------|---------------|----------------||
|---------------|---------------|----------------||
|---------------|---------------|----------------||
|---------------|---------------|----------------||
|-4-4----4-4----|-4-4----4-4----|-4-4------------||
|-2-2----2-2----|-2-2----2-2----|-2-2----/12\----||


   Bridge
    N.C.                                F5F#5  F5F#5    F5F#5  F5F#5
    E E E E E E E E   E E E E E E E E   E E Q  E E Q    E E Q  E E Q   3x
||------------------|-----------------|---------------|----------------||
||o-----------------|-----------------|---------------|---------------o||
||------------------|-----------------|---------------|----------------||
||------------------|-----------------|---------------|----------------||
||o---2-0-----2-0---|---2-0-----2-0---|-3-4----3-4----|-3-4----3-4----o||
||--2-----0-2-----0-|-2-----0-2-----0-|-1-2----1-2----|-1-2----1-2-----||


  N.C.
  E E E E E E E E   E E E E E E E E
|-----------------|-----------------|
|-----------------|-----------------|
|-----------------|-----------------|
|-----------------|-----------------|
|---2-0-----2-0---|---2-0-----2-0---|
|-2-----0-2-----0-|-2-----0-2-----0-|


  F#5
  q  q  q  q    q  q  q  q    q  q  q  q
|-------------|-------------|---------------|
|-------------|-------------|---------------|
|-------------|-------------|---------------|
|-------------|-------------|---------------|
|-4--4--4--4--|-4--4--4--4--|-4--4--4--4----|
|-2--2--2--2--|-2--2--2--2--|-2--2--2--2----|


                                                            D.S. al Coda
           N.C.      F#5
           PM----|
  q  q  q  S S S S   q  q  q  q    q  q  q  q    q  q  q  q    q  q  q  q
|------------------|-------------|-------------|-------------|-------------||
|------------------|-------------|-------------|-------------|-------------||
|------------------|-------------|-------------|-------------|-------------||
|------------------|-------------|-------------|-------------|-------------||
|-4--4--4----------|-4--4--4--4--|-4--4--4--4--|-4--4--4--4--|-4--4--4--4--||
|-2--2--2--0-0-0-0-|-2--2--2--2--|-2--2--2--2--|-2--2--2--2--|-2--2--2--2--||


 Outro
  &
  N.C.
  Gtr I
  PM----|     PM----|        PM-----|     PM----|
  S S S S E E S S S S E E    S  S S S E E S S S S E E
|-------------------------|---------------------------|
|-------------------------|---------------------------|
|-------------------------|---------------------------|
|-------------------------|---------------------------|
|-------------------------|---------------------------|
|-2-2-2-2-2---2-2-2-2-2---|--2--2-2-2-2---2-2-2-2-2---|
|
| Gtr II
| ~~~~~~~~~~~~~~~~~~~~~~~~~~~~~~~~~~~~~~~~~~~~~~~~~~~~~
| W                         +W
|-------------------------|---------------------------|
|-------------------------|---------------------------|
|-------------------------|---------------------------|
|-------------------------|---------------------------|
|-9-----------------------|-(9)-----------------------|
|-------------------------|---------------------------|


   PM-----|     PM----|        PM-----|     PM----|
   S  S S S E E S S S S E E    S  S S S E E S S S S E E
|---------------------------|------------------------------||
|---------------------------|------------------------------||
|---------------------------|------------------------------||
|---------------------------|------------------------------||
|---------------------------|------------------------------||
|--2--2-2-2-2---2-2-2-2-2---|--2--2-2-2-2---2-2-2-2-2------||
|
|~~~~~~~~~~~~~~~~~~~~~~~~~~~~~~~~~
| +W                          +W
|---------------------------|------------------------------||
|---------------------------|------------------------------||
|---------------------------|------------------------------||
|---------------------------|------------------------------||
|-(9)-----------------------|-(9)--------------------------||
|---------------------------|------------------------------||


   PM-----|     PM----|
   S  S S S E E S S S S E E
|---------------------------|
|---------------------------|
|---------------------------|
|---------------------------|
|---------------------------|
|--2--2-2-2-2---2-2-2-2-2---|
|
| +W
|---------------------------|
|---------------------------|
|---------------------------|
|---------------------------|
|-(9)-----------------------|
|---------------------------|


                              F#5
   PM-----|     PM----|
   S  S S S E E S S S S E E   E E Q  H      Q  Q  H
|---------------------------|-------------|------------*|
|---------------------------|-------------|------------*|
|---------------------------|-------------|------------*|
|---------------------------|-------------|------------*|
|---------------------------|-4-4---------|-4--4-------*|
|--2--2-2-2-2---2-2-2-2-2---|-2-2---------|-2--2-------*|
|
| +W                          E E Q  H      Q  Q  H
|---------------------------|-------------|------------*|
|---------------------------|-------------|------------*|
|---------------------------|-------------|------------*|
|---------------------------|-------------|------------*|
|-(9)-----------------------|-4-4---------|-4--4-------*|
|---------------------------|-2-2---------|-2--2-------*|



Duration Legend
---------------
W - whole; H - half; Q - quarter; E - 8th; S - 16th; T - 32nd; X - 64th; a - acciaccatura
+ - note tied to previous; . - note dotted; .. - note double dotted
Uncapitalized letters represent notes that are staccato (1/2 duration)
Irregular groupings are notated above the duration line
Duration letters will always appear directly above the note/fret number it represents the
duration for.  Duration letters with no fret number below them represent rests.  Multi-
bar rests are notated in the form Wxn, where n is the number of bars to rest for.  Low
melody durations appear below the staff

Tablature Legend
----------------
 h   - hammer-on
 p   - pull-off
 b   - bend
 pb  - pre-bend
 r   - bend release (if no number after the r, then release immediately)
 /\  - slide into or out of (from/to "nowhere")
 s   - legato slide
 S   - shift slide
 - natural harmonic
[n]  - artificial harmonic
n(n) - tapped harmonic
 ~   - vibrato
 tr  - trill
 T   - tap
 TP  - trem. picking
 PM  - palm muting
\n/  - tremolo bar dip; n = amount to dip
 \n  - tremolo bar down
 n/  - tremolo bar up
/n\  - tremolo bar inverted dip
 =   - hold bend; also acts as connecting device for hammers/pulls
 <> - volume swell (louder/softer)
 x   - on rhythm slash represents muted slash
 o   - on rhythm slash represents single note slash

Misc Legend
-----------
 |  - bar
||  - double bar
||o - repeat start
o|| - repeat end
*|  - double bar (ending)
 :  - bar (freetime)
 $  - Segno
 &  - Coda
Tempo markers -  = BPM(8/16=s8/s16), where s8 = swing 8ths, s16 = swing 16ths

Related for Potters Field tab
Advertisement will be closed in 10 seconds