Song name
# A B C D E F G H I J K L M N O P Q R S T U V W X Y Z

Anti-flag - Tearing Everyone Down tab

-------------------------------------------------------------------------------
	 	Tearing Everyone Down - Anti-Flag
-------------------------------------------------------------------------------
Tabbed by: Andres 'silvadolla' Ali
Email: andres.ali@gmail.com

Tuning: EADGBE (Standard)

I loved the way this song started off. Everything in this tab is pretty accurate, but the solo needs
a bit of work. What I have written will definitely suffice, but it's not exactly the way that
A-F plays it. So if you find something that's more accurate than my solo, please let me know. 
Intro:

e|---------------------------------------------------------------------------|
B|------9-------9-9-----9-----9-9--------------------------------------------|
G|--6-6-----6-6-----6-6----6-6-----------------------------------------------|
D|---------------------------------------------------------------------------|x2
A|---------------------------------------------------------------------------|
E|---------------------------------------------------------------------------|

e|---------------------------------------------------------------------------|
B|-----------------4-5-4---4-------------------------------------------------|
G|---6-6-6--4--6-v-------6---4v----------------------------------------------|x2
D|---------------------------------------------------------------------------|
A|---------------------------------------------------------------------------|
E|---------------------------------------------------------------------------|

Verse:
e|---------------------------------------------------------------------------|
B|---------------------------------------------------------------------------|
G|---------------------------------------------------------------------------|
D|-6-6-6-6-------------------------------------------------------------------|
A|-4-4-4-4--7-7-7-7---9-9-9-9--4-4-4-4---------------------------------------|x4
E|----------5-5-5-5---7-7-7-7--2-2-2-2---------------------------------------|

e|---------------------------------------------------------------------------|
B|---------------------------------------------------------------------------|
G|---------------------------------------------------------------------------|
D|-9-9-9-------8-8-8-------6-6-6---------------------------------------------|
A|-7-7-7-------6-6-6-------4-4-4----7-7-7------------------------------------|x2
E|----------------------------------5-5-5------------------------------------|

e|---------------------------------------------------------------------------|
B|---------------------------------------------------------------------------|
G|---------------------------------------------------------------------------|
D|---------------------------------------------------------------------------|
A|--7-7-7---7-7-7---7--------------------------------------------------------|
E|--5-5-5---5-5-5---5--------------------------------------------------------|

Chorus:
e|---------------------------------------------------------------------------|
B|---------------------------------------------------------------------------|
G|---------------------------------------------------------------------------|
D|-6-6-6-6-------------------------------------------------------------------|
A|-4-4-4-4--7-7-7-7---9-9-9-9--4-4-4-4---------------------------------------|x2
E|----------5-5-5-5---7-7-7-7--2-2-2-2---------------------------------------|

Fill: 
e|---------------------------------------------------------------------------|
B|-----------------4-5-4---4-------------------------------------------------|
G|---6-6-6--4--6-v-------6---4v----------------------------------------------|x2
D|---------------------------------------------------------------------------|
A|---------------------------------------------------------------------------|
E|---------------------------------------------------------------------------|

Verse:
e|---------------------------------------------------------------------------|
B|---------------------------------------------------------------------------|
G|---------------------------------------------------------------------------|
D|-6-6-6-6-------------------------------------------------------------------|
A|-4-4-4-4--7-7-7-7---9-9-9-9--4-4-4-4---------------------------------------|x4
E|----------5-5-5-5---7-7-7-7--2-2-2-2---------------------------------------|

e|---------------------------------------------------------------------------|
B|---------------------------------------------------------------------------|
G|---------------------------------------------------------------------------|
D|-9-9-9-------8-8-8-------6-6-6---------------------------------------------|
A|-7-7-7-------6-6-6-------4-4-4----7-7-7------------------------------------|x2
E|----------------------------------5-5-5------------------------------------|

e|---------------------------------------------------------------------------|
B|---------------------------------------------------------------------------|
G|---------------------------------------------------------------------------|
D|---------------------------------------------------------------------------|
A|--7-7-7---7-7-7---7--------------------------------------------------------|
E|--5-5-5---5-5-5---5--------------------------------------------------------|

Chorus:
e|---------------------------------------------------------------------------|
B|---------------------------------------------------------------------------|
G|---------------------------------------------------------------------------|
D|-6-6-6-6-------------------------------------------------------------------|
A|-4-4-4-4--7-7-7-7---9-9-9-9--4-4-4-4---------------------------------------|x2
E|----------5-5-5-5---7-7-7-7--2-2-2-2---------------------------------------|


Bridge:
e|---------------------------------------------------------------------------|
B|---------------------------------------------------------------------------|
G|---------------------------------------------------------------------------|
D|-6-6-----------------------------------------------------------------------|
A|-4-4-------7-7-----------9--9--------------4-4-----------------------------|
E|-----------5-5-----------7--7--------------2-2-----------------------------|

e|---------------------------------------------------------------------------|
B|---------------------------------------------------------------------------|
G|---------------------------------------------------------------------------|
D|-6-6-----------------------------------------------------------------------|
A|-4-4-------7-7-----------9--9--------------4-4----4-4-4-4-4----------------|
E|-----------5-5-----------7--7--------------2-2----2-2-2-2-2----------------|

e|---------------------------------------------------------------------------|
B|---------------------------------------------------------------------------|
G|---------------------------------------------------------------------------|
D|-6-6-6-6-6-----------------------------------------------------------------|
A|-4-4-4-4-4---7-7-7-7-7----9-9-9-9-9----4-4-4-4-4---------------------------|
E|-------------5-5-5-5-5----7-7-7-7-7----2-2-2-2-2---------------------------|

e|---------------------------------------------------------------------------|
B|---------------------------------------------------------------------------|
G|---------------------------------------------------------------------------|
D|-6-6-6-6-------------------------------------------------------------------|
A|-4-4-4-4--7-7-7-7---9-9-9-9--4-4-4-4---------------------------------------|
E|----------5-5-5-5---7-7-7-7--2-2-2-2---------------------------------------|

Solo:

e|---------------------------------------------------------------------------|
B|---------------------------------------------------------------------------|
G|-13-13-13-11-13v-11-13-11-9-11-8-v-----------------------------------------|
D|---------------------------------------------------------------------------|
A|---------------------------------------------------------------------------|
E|---------------------------------------------------------------------------|

e|---------------------------------------------------------------------------|
B|---------------------------------------------------------------------------|
G|--18-13-11-9-8-9---11v-11v-11v-11v-11v-------------------------------------|
D|---------------------------------------------------------------------------|
A|---------------------------------------------------------------------------|
E|---------------------------------------------------------------------------|

e|--12p9---------12p9----------12p9-----12p9---------------------------------|
B|-------9------------9------------9---------------------------16b-18b18b18b-|
G|---------------------------------------------------------------------------|
D|---------------------------------------------------------------------------|
A|---------------------------------------------------------------------------|
E|---------------------------------------------------------------------------|


e|---------------------------------------------------------------------------|
B|-9-12-14---9-12-14--9-12-14----9-12-14b-14b-14b-14b-14b--------------------|
G|---------------------------------------------------------------------------|
D|---------------------------------------------------------------------------|
A|---------------------------------------------------------------------------|
E|---------------------------------------------------------------------------|

Outro:

e|---------------------------------------------------------------------------|
B|---------------------------------------------------------------------------|
G|---------------------------------------------------------------------------|
D|-9-9-9-------8-8-8-------6-6-6---------------------------------------------|
A|-7-7-7-------6-6-6-------4-4-4----7-7-7------------------------------------|x2
E|----------------------------------5-5-5------------------------------------|

e|---------------------------------------------------------------------------|
B|---------------------------------------------------------------------------|
G|---------------------------------------------------------------------------|
D|---------------------------------------------------------------------------|
A|--7-7-7---7-7-7-7-7-7--7---------------------------------------------------|
E|--5-5-5---5-5-5-5-5-5--5---------------------------------------------------|

e|---------------------------------------------------------------------------|
B|---------------------------------------------------------------------------|
G|---------------------------------------------------------------------------|
D|-6-6-6-6-------------------------------------------------------------------|
A|-4-4-4-4--7-7-7-7---9-9-9-9--4-4-4-4---------------------------------------|x4
E|----------5-5-5-5---7-7-7-7--2-2-2-2---------------------------------------|

finish on C#5 powerchord

Fine.

Anti-Flag kicks ass!




| /  slide up
| \  slide down
| h  hammer-on
| p  pull-off
| ~  vibrato
| +  harmonic
| x  Mute note
===============================================================================
Tap to rate this tab
 
# A B C D E F G H I J K L M N O P Q R S T U V W X Y Z