Song name
# A B C D E F G H I J K L M N O P Q R S T U V W X Y Z

Anti-flag - Right On tab

Intro
E----------------|
B----------------|
G--8--6----------|
D--8--6--8--6----|
A--6--4--8--6----|
E--------6--4----|
(the rhythm is pretty self explanitory)

Verse
E--------6----------------|
B--------6----------------|
G--8--8--8---8--6---------|
D--8--8------8--6--8--6---|
A--6--6------6--4--8--6---|
E------------------6--4---|
(play the first chord twice then strum the high notes quickly and go back into the intro riff)

Chorus
E-----------------------------------------------------------|
B-----------------------------------------------------------|
G--------8--6--------8--6--------8--6--------8--6-----------|
D--4--6--8--6--8--6--8--6--8--6--8--6--8--6--8--6--8--6-----|
A--4--6--6--4--8--6--6--4--8--6--6--4--8--6--6--4--8--6-----|
E--2--4--------6--4--------6--4--------6--4--------6--4-----|


Solo (I'm not 100% sure on this but this way sounds okay)
E-----------------------------------------14p12p11--14p12p11--14p12p11-|
B--12--12---12---12---12---12---12---12--------------------------------|
G--13^-13^--13^--13^--13^--13^--13^--13^-------------------------------|
D----------------------------------------------------------------------|
A----------------------------------------------------------------------|
E----------------------------------------------------------------------|

E--14p12p11--14p12p11--14p12p11--14^---|
B--------------------------------------|
G--------------------------------------|
D--------------------------------------|
A--------------------------------------|
E--------------------------------------|

Outro/End
E---------|
B---------|
G---8\----|
D---8\----|
A---6\----|
E---------|

Intro X 8
Verse X 2
Chorus X 1
Verse X 2
Chorus X 1
Verse (play the 1st chord of the verse and choke it)
Solo
Chorus X 1
Outro/End

Any questions, comments or concerns email me at ryan90@comcast.net.
Tap to rate this tab
# A B C D E F G H I J K L M N O P Q R S T U V W X Y Z