Song name
# A B C D E F G H I J K L M N O P Q R S T U V W X Y Z

Anti-flag - Die For Your Government tab

Song: Die For Your Government
Artist: Anti-Flag
Album: Die For The Government
Tuning: Standard (ebgadE)

Intro:
[---------------------------------------------------------------------------]
[---------------------------------------------------------------------------]
[-------------6-6-6-----------------------6-6-6---------9-9-9-9-------------]
[-Pick-Slide--6-6-6--7-7-7--2-2-2--4-4-4--6-6-6--7-7-7--9-9-9-9--9-9-9------]
[-------------4-4-4--7-7-7--2-2-2--4-4-4--4-4-4--7-7-7--7-7-7-7--7-7-7------]
[--------------------5-5-5--0-0-0--2-2-2---------5-5-5-----------7-7-7------]

Then:
[---------------------------------------------------------------------------]
[---------------------------------------------------------------------------]
[-6-6-6-----------------------6-6-6---------9-------------------------------]
[-6-6-6--7-7-7--2-2-2--4-4-4--6-6-6--7-7-7--9-------------------------------]
[-4-4-4--7-7-7--2-2-2--4-4-4--4-4-4--7-7-7--7-------------------------------]
[--------5-5-5--0-0-0--2-2-2---------5-5-5----------------------------------]

Pre-Verse:
[---------------------------------------------------------------------------]
[---------------------------------------------------------------------------]
[-6------6------------------------------------------------------------------]
[-6-Ring-6-Ring--Pick-Slide-------------------------------------------------]
[-4------4-------Pick-Slide-------------------------------------------------]
[---------------------------------------------------------------------------]

Verse: *Play 50-55x (M=Mute Note Above/Below)
[---------][---------------------------][-----------------------------------]
[-M-------][-MM----MM----MM-----MM-77--][-----------------------------------]
[-6*------][-66-77-66-44-66-77--66-----][-6-6--6-6--6-6--6-6-6-6-6-6--------]
[---------][---------------------------][-6-6--6-6--6-6--6-6-6-6-6-6--------]
[---------][---------------------------][-4-4--4-4--4-4--4-4-4-4-4-4--------]
[---------][---------------------------][-----------------------------------]

Play Intro
Pre-Verse
Verse
Play Intro (with Last Note 3x)

Bridge:
[--------------------------][-------------------------------]
[--------------------------][-------------------------------]
[-6-6-6-6-6-6--------------][-6-6-6-6-6-6---------------9-9-]
[-6-6-6-6-6-6--7-7-7-7-7-7-][-6-6-6-6-6-6--7-7-7-7-7-7--9-9-]
[-4-4-4-4-4-4--7-7-7-7-7-7-][-4-4-4-4-4-4--7-7-7-7-7-7--7-7-]
[--------------5-5-5-5-5-5-][--------------5-5-5-5-5-5------]

Then:
[---------------------------------------------------------------------------]
[---------------------------------------------------------------------------]
[-6-6-6-6-6-6---------------6-6-6-6-6-6-------------------------------------]
[-6-6-6-6-6-6--7-7-7-7-7-7--6-6-6-6-6-6-7--7--7--7-7-7-7-7------------------]
[-4-4-4-4-4-4--7-7-7-7-7-7--4-4-4-4-4-4-7--7--7--7-7-7-7-7------------------]
[--------------5-5-5-5-5-5--------------5--5--5--5-5-5-5-5------------------]

Chorus 2: 2:44 2.8 Palm Mute! Stop Here! (2.5!)
[---------------------------------------------------------------------------]
[---------------------------------------------------------------------------]
[-6-6-6-6-----------------------------6-6-6-6----------9-9-9-9-9------------]
[-6-6-6-6--7-7-7-7--2-2-2-2--4-4-4-4--6-6-6-6-7-7-7-7--9-9-9-9-9--9-9-9-9---]
[-4-4-4-4--7-7-7-7--2-2-2-2--4-4-4-4--4-4-4-4-7-7-7-7--7-7-7-7-7--9-9-9-9---]
[----------5-5-5-5--0-0-0-0--2-2-2-2----------5-5-5-5-------------7-7-7-7---]

Then:
NO PALM MUTES!
[---------------------------------------------------------------------------]
[---------------------------------------------------------------------------]
[---------9-9-9-9-----------------------------------------------------------]
[-7-7-7---9-9-9-9---9-9-9---------------------------------------------------]
[-7-7-7---7-7-7-7---9-9-9---------------------------------------------------]
[-5-5-5-------------7-7-7---------------------------------------------------]

Intro 5x (Fifth During Fadeout!!!)
The Bridge And The Rest Of The Song Use Pretty Much The Same Chords???
Tap to rate this tab
# A B C D E F G H I J K L M N O P Q R S T U V W X Y Z