Song name
# A B C D E F G H I J K L M N O P Q R S T U V W X Y Z

Anti-flag - Turncoat tab

Intro(Acoustic)
G          Am        C       Em
  Turncoat!   Killer!   Liar!   Thief!
Em            Am         C    G        
Criminal With Protection Of The Law.  Go!

Before the Verse
E|-----------------------------------------------------|
B|----6-5------6-5-8-----------------------------------|
G|--------5---------------7-7-----5-5-----3-3-----3-2--|X2
E|--3--------3--------3-3-----3-3-----3-3-----3-3------|
A|-----------------------------------------------------|
E|-----------------------------------------------------|

E|-----------------------------------------------------|
B|----6-5------6-5-8----------------------3-3-----5-5-6|
G|--------5---------------7-7-----5-5------------------|
E|--3--------3--------3-3-----3-3-----3-3-----3-3------|
A|-----------------------------------------------------|
E|-----------------------------------------------------|

Verse
E|----------------------------------------|
B|----------------------------------------|
G|-------------------33-3-33-3-33-3-33-3--|X4
E|-33333333-55555555-33-3-33-3-33-3-33-3--|
A|-33333333-55555555-11-1-11-1-11-1-11-1--|
E|-11111111-33333333----------------------|
   P.M..... ........ ..   ..   ..   ..

Chorus
E|------------------1-1-1-------------------------------|
B|------------------3-3-3-3-3-3-33-5-55-3-33------------|
G|-------------3-3--2-2-2-3-3-3-33-5-55-3-33------------|X2
E|-3-3--5-5-5--3-3--0-0-0-3-3-3-33-5-55-3-33-3-3-33-33-3|
A|-3-3--5-5-5--1-1--0-0-0-1-1-1-11-3-33-1-11-3-3-33-33-3|
E|-1-1--3-3-3--------------------------------1-1-11-11-1|

Post Chorus(acoustic part)
E|-1-1-11-11-1-3-3-33-33-3------------------------|
B|-1-1-11-11-1-3-3-33-33-3------------------------|
G|-2-2-22-22-2-4-4-44-44-4-7-7-77-77-7-5-5-55-55-5|
E|-3-3-33-33-3-5-5-55-55-5-7-7-77-77-7-5-5-55-55-5|
A|-3-3-33-33-3-5-5-55-55-5-5-5-55-55-5-3-3-33-33-3|
E|-x-x-xxxxx-1-3-3-33-33-3------------------------|

E|-------------------------------------------------------------------|
B|-------------------------------------------------------------------|
G|------------------------------------------77777777-53-53-53-53-53--|
E|-33-3-33-3-33-3-33-3-55-5-55-5-55-5-55-5--77777777-53-53-53-53-53--|
A|-33-3-33-3-33-3-33-3-55-5-55-5-55-5-55-5--55555555-31-31-31-31-31--|
E|-11-1-11-1-11-1-11-1-33-3-33-3-33-3-33-3---------------------------|
   PM   **   **   **   **   **   **   **    ******

Chorus again X2
Before the Verse X4

e----|
B----|
G-5--|
E-5--|
A-3--|
E----|
END
Tap to rate this tab
 
# A B C D E F G H I J K L M N O P Q R S T U V W X Y Z