Song name
# A B C D E F G H I J K L M N O P Q R S T U V W X Y Z

Anti-flag - No Future tab

Help us improve GuitareTab! Take a short survey!
No Future by Anti-Flag

Intro:

e--------------9-9---9-9---11-11---12-12----9-9---9-9---11-11-------|
B-----------------9-9---9-9-----9-9-----9-9----9-9---9-9-----9-9----|
G--6~-6~-6~-6-------------------------------------------------------|
D--6~-6~-6~-6-------------------------------------------------------|
A--4~-4~-4~-4-------------------------------------------------------|
E-------------------------------------------------------------------|

e--7-7---9-9---9-9---11-11---12-12----4-4---4-4---5-5---7-7----|
B-----7-7---9-9---9-9-----9-9-----9-9----5-5---5-5---5-5---5-5-|
G--------------------------------------------------------------|
D--------------------------------------------------------------|
A--------------------------------------------------------------|
E--------------------------------------------------------------|



Verse:

e-------------------------------------------------------|
B-------------------------------------------------------|
G--6-66666666666666666666666666666666666666666666666~---|
D--6-66666666666666666666666666666666666666666666666~---|
A--4-44444444444444444444444444444444444444444444444~---|
E-------------------------------------------------------|

Pm   ..................................



Pre-Chorus:

e---------------|
B---------------|
G---------------|
D--7~-7~-7~-9~--|
A--7~-7~-7~-9~--|
E--5~-5~-5~-7~--|


Chorus:

e---------------------------------------------|
B---------------------------------------------|
G--6-666666--9-999999-------------------------|
D--6-666666--9-999999--9-999999--7-777777-----|
A--4-444444--7-777777--9-999999--7-777777-----|
E----------------------7-777777--5-555555-----|

e---------------------------------------------------------------|
B---------------------------------------------------------------|
G--6-666666--9-999999-------------------------------------------|
D--6-666666--9-999999--9-999999--7-77777777777777777777777~-----|
A--4-444444--7-777777--9-999999--7-77777777777777777777777~-----|
E----------------------7-777777--5-55555555555555555555555~-----|

Pm                                 ..............




Intro

e----9-9---9-9---11-11---12-12----9-9---9-9---11-11----7-7----|
B-------9-9---9-9-----9-9-----9-9----9-9---9-9-----9-9----7-7-|
G-------------------------------------------------------------|
D-------------------------------------------------------------|
A-------------------------------------------------------------|
E-------------------------------------------------------------|

e-----9-9---9-9---11-11---12-12----4-4---4-4---5-5---7-7----|
B--------9-9---9-9-----9-9-----9-9----5-5---5-5---5-5---5-5-|
G-----------------------------------------------------------|
D-----------------------------------------------------------|
A-----------------------------------------------------------|
E-----------------------------------------------------------|


Verse:

e--------------9-9-9-9-9-9-9-9-9~---|
B-----------------------------------|
G--6~-------------------------------|
D--6~-------------------------------|
A--4~-------------------------------|
E-----------------------------------|


Pre Chorus.


Chorus:

e---------------------------------------------|
B---------------------------------------------|
G--6-666666--9-999999-------------------------|
D--6-666666--9-999999--9-999999--7-777777-----|   2x
A--4-444444--7-777777--9-999999--7-777777-----|
E----------------------7-777777--5-555555-----|



Bridge:

e---------------------------------------------------------------|
B---------------------------------------------------------------|
G--666--9~--------------6-666666--9-999999----------------------|
D--666--9~---999--7~----6-666666--9-999999--9-999999--7-777777--|     
A--444--7~---999--7~----4-444444--7-777777--9-999999--7-777777--|
E------------777--5~------------------------7-777777--5-555555--|


e------------------------------------------|
B------------------------------------------|
G--6-6--6-6---9---11---6-6--6-6---9-11-16--|
D--6-6--6-6---9-9-11---4-4--4-4---9--x--x--|
A--4-4--4-4---7-9--9---4-4--4-4---7--9-14--|
E---------------7--------------------------|


e-------------------------------------------------------------------|
B-------------------------------------------------------------------|
G-6-6--8/9/8--6-6--8/9/11--9---11--6-6--8/9/8--6-6--8/9/11-9-11-16--|
D-6-6--x-x-x--6-6--x-x-x---9-9-11--4-4--x-x-x--4-4--x-x-x--9--x--x--|
A-4-4--6/7/6--4-4--6/7/9---7-9--9--4-4--6/7/6--4-4--6/7/9--7--9-14--|
E----------------------------7--------------------------------------|


Intro

e--------------9-9---9-9---11-11---12-12----9-9---9-9---11-11-------|
B-----------------9-9---9-9-----9-9-----9-9----9-9---9-9-----9-9----|
G--6~-6~-6~-6-------------------------------------------------------|
D--6~-6~-6~-6-------------------------------------------------------|
A--4~-4~-4~-4-------------------------------------------------------|
E-------------------------------------------------------------------|

e--7-7---9-9---9-9---11-11---12-12----4-4---4-4---5-5---7-7----|
B-----7-7---9-9---9-9-----9-9-----9-9----5-5---5-5---5-5---5-5-|
G--------------------------------------------------------------|
D--------------------------------------------------------------|
A--------------------------------------------------------------|
E--------------------------------------------------------------|

(repeat riff a few times.)

Ok, that should be it. 
Have fun with it, for any corrections or whatever just leave a comment.
Related for No Future tab