Song name
# A B C D E F G H I J K L M N O P Q R S T U V W X Y Z

Antiseen - Fuck All Yall tab

Fuck All Y'All
ANTiSEEN
Album: Eat More Possum
Tuning: Standard

Riff 1:

   C#5                                                   E5      F#5
E|-----------------|-----------------|-----------------|-----------------|
B|-----------------|-----------------|-----------------|-----------------|
G|-----------------|-----------------|-----------------|-9-------11------|
D|-11--11-11-11-11-|-11--11-11-11-11-|-11--11-11-11-11-|-9-------11------|
A|-11--11-11-11-11-|-11--11-11-11-11-|-11--11-11-11-11-|-7--------9------|
E|--9---9--9--9--9-|--9---9--9--9--9-|--9---9--9--9--9-|-----------------|

Riff 2:

   C#5    E5   F#5   C#5    E5   F#5   C#5    E5   F#5   C#5   F#5    B
E|-----------------|-----------------|-----------------|-----------------|
B|-----------------|-----------------|-----------------|-----------------|
G|--------9----11--|--------9----11--|--------9----11--|-------11--------|
D|-11-----9----11--|-11-----9----11--|-11-----9----11--|-11----11-----9--|
A|-11-----7-----9--|-11-----7-----9--|-11-----7-----9--|-11-----9-----9--|
E|--9--------------|--9--------------|--9--------------|--9-----------7--|


E|-----------------|-----------------|-----------------|-----------------|
B|-----------------|-----------------|-----------------|-----------------|
G|-----------------|-----------------|-----------------|-----------------|
D|-11~-------------|-11~-------------|-----------------|-----------------|
A|-11~-------------|-11~-------------|-----------------|-----------------|
E|--9~-------------|--9~-------------|-----------------|-----------------|
                             "Fuck All Y'All!"


spunk87@freenet.de
steffenwoehler87@gmail.com
Tap to rate this tab
# A B C D E F G H I J K L M N O P Q R S T U V W X Y Z