Song name
# A B C D E F G H I J K L M N O P Q R S T U V W X Y Z

Antiskeptic - Beautiful In White tab

Help us improve GuitareTab! Take a short survey!
Song: Antiskeptic - Beautiful In White
Tabbed By: Cameron Ross
Tuning: Drop D

Thanks to Jordan who wrote the first version of this tab, giving me the starting point.

I haven't tabbed the rhythm or every strum, listen to the song for all that.

Verse 1:
e: ------------------------------------------------------------------------|
B: ----------------------------------------------------------------7-------|
G: -------------------9---8----------------------------------------7-------|
D: -5-----12----7----9---9-----5-----12----4----44-22----------5---5--7----|
A: -5-----12----7---8---7------5-----12----4----------55-44----5------7----|
D: -5-----12----7--------------5-----12----4-------------------5------7----|

Chorus 1:
e: -----------------------------------------------------------------|
B: -----------------------------------------------------------------|
G: ---4------6------7------2------4-----------------7~--------------|
D: --4-4----7-7----7-7----2-2----4-4-----4-----555--7~--------------|
A: 2------4------5------0------2--------4-4----555--5~--------------|
D: -----------------------------------4--------555--5~--------------|

Main riff:
e: -----------------------------------------------------------|
B: -----------------------------------------------------------|
G: ---7/6----7/6--------7/6-----7/6-7/9--)--------------------|
D: -0-x/x--0-x/x-0h4--5-x/x--7--x/x-x/x--)--------------------|
A: -0-5/4--0-5/4-0h4--5-5/4--7--5/4-5/7--)-x2-----------------|
D: -0------0-----0h4--5------7-----------)--------------------|


Interlude 1:
e: -----
B: -----
G: -----
D: -5---
A: -5---
D: -5---


Verse 2 - same as Verse 1 with different muting

Chorus 2 - guitar 1 plays same as Chorus 1

Chorus 2 - guitar 2:
e: ---------------------|
B: ---------------------|
G: -4--6--7-----4-------|
D: -4--7--7--7--4--4--5-|
A: -2--4--5--7--2--4--5-|
D: ----------7-----4--5-|


Chorus 2 - ending 1:
e: ----------------|
B: ----------------|
G: -7-----7--------|
D: -7--5--7--------|
A: -5--5--5--------|
D: -5--5--5--------|


Interlude 2:
e: -----
B: -----
G: -----
D: -12--
A: -12--
D: -12--

Bridge 1:
e: -----------------------------------|
B: -----------------------------------|
G: ------------------------------7----|
D: -12--4--5--11--)----12--4--5--7----|
A: -12--4--5--11--)x2--12--4--5--5----|
D: -12--4--5--11--)----12--4--5--5----|


Main riff

Bridge 2:
e: ---------------------------------------------------------------------------|
B: ---------------------------------------------------------------------------|
G: ----------11-12-14--11/12/14/12/11/12/14/12--------------11-12-14-12-------|
D: -5--0--4---x--x--x---x--x--x--x--x--x--x--x-----5--0--4---x--x--x--x---19/-|
A: -5--0--4---9-10-12---9/10/12/10/-9/10/12/10-----5--0--4---9-10-12-10---19/-|
D: -5--0--4----------------------------------------5--0--4----------------19/-|

Verse 1

Chorus 2 - guitars 1 & 2

Chorus 2 - guitar 2 only

Chorus 2 - ending 2:
e: ------------------|
B: ------------------|
G: -7-----7----------|
D: -7--5--7--5~--12--|
A: -5--5--5--5~--12--|
D: -5--5--5--5~--12--|

Main riff

Ending riff:
e: -----------------------------------------------------------|
B: -----------------------------------------------------------|
G: ---9/11----12/11/9----7/6----7/6-----7/6-7/9---------------|
D: -0-x/-x--0--x/-x/x--0-x/x--5-x/x--7--x/x-x/x---------------|
A: -0-7/-9--0-10/-9/7--0-5/4--5-5/4--7--5/4-5/7---------------|
D: -0-------0----------0------5------7------------------------|

e: -----------------------------------------------------------|
B: -----------------------------------------------------------|
G: ---14/12----12/11/9----7/6----7/6-----7/6-7/9--------------|
D: -0--x/-x--0--x/-x/x--0-x/x--5-x/x--7--x/x-x/x--------------|
A: -0-12/10--0-10/-9/7--0-5/4--5-5/4--7--5/4-5/7--------------|
D: -0--------0----------0------5------7-----------------------|

e: --------|
B: --------|
G: --------|
D: -5-7-0--|
A: -5-7-0--|
D: -5-7-0--|
Related for Beautiful In White tab