Song name
# A B C D E F G H I J K L M N O P Q R S T U V W X Y Z

Antoine Dufour - In These Moment tab

-------------------------------------------------------------------------------
                            In These Moments - Antoine Dufour
-------------------------------------------------------------------------------
Tabbed by: CJB2293

This song has been pretty difficult to figure out by ear, as no one has posted anything 
on here. I hope what I have can help you all figure out the rest!

Listen to the recording/youtube video in order to get the rhythms down. I'll do my best 
to get them into the tab for you.

Key for Percussion Sounds:
R = Finger Roll
W = Write Hit
S = Snare Slap
F = Finger hit

Tuning: (Low - High)
C# G# E F# B D#

Part 1 (All Natural Harmonics)
D#|----------12---------------------------7-----------------------|
  B|--7--------------------12-----------7------5------------------|
F#|--------------7------------7-----------------------------------|
  E|---7--7--7--7--7--7--7---7--7--7--7--7--7---7--7--------------|
G#|---------------------------------------------------------------|
C#|---------------------------------------------------------------|


Part 2: x3 then ending part 2
D#|-h3-----------------h10-------------------------|
  B|---------------*12-----------------------------|
F#|---------------*12------------------------------|
  E|-----------------------------------------------|
G#|------------------------------------------------|
C#|----3-------------------10----------------------|
             W  R----                       F           W    S  S

D#|----------------------------------------------------------|
  B|--0------------------------------------------------------|
F#|----h7-(7)-------p0---------------------------------------|
  E|--------------------------h6-h7--------------------------|
G#|----------------------------------------------------------|
C#|-------5--------p0------- h7------------------------------|
            W      R---S                       W       R-----|S

Ending to Part 2:
D#|-h3-----------------h10-------------------------|
  B|---------------*12-----------------------------|
F#|---------------*12------------------------------|
  E|-----------------------------------------------|
G#|------------------------------------------------|
C#|----3-------------------10----------------------|
             W  R----                       F           W    S  S

D#|-------------------------------------------|
  B|--0---------------------------------------|
F#|---------------0--0--2---------------------|
  E|----h6------------------------------------|
G#|-------------------------------------------|
C#|-------5-----------------------------------|
            W      R---S        W       R-----|S

D#|-h3-----------------h10-------------------------|
  B|---------------*12-----------------------------|
F#|---------------*12------------------------------|
  E|-----------------------------------------------|
G#|------------------------------------------------|
C#|----3-------------------10----------------------|
             W  R----                       F           W    S  S

D#|----------------------------------------------------------|
  B|--0------------------------------------------------------|
F#|----h7-(7)-------p0---------------------------------------|
  E|--------------------------h6-h7--------------------------|
G#|----------------------------------------------------------|
C#|-------5--------p0------- h7------------------------------|
            W      R---S                       W       R-----|S



D#|-p0h3--------p0h3---------p0h3------p0h3~~---------------|
  B|--------------------------------------------------------|
F#|---------------------------------------------------------|
  E|--------------------------------------------------------|
G#|---------------------------------------------------------|
C#|-------3-----------3------------3------------------------|
             W      R---S     W      R---S      W      R----|S  W
Tap to rate this tab
# A B C D E F G H I J K L M N O P Q R S T U V W X Y Z