Song name
# A B C D E F G H I J K L M N O P Q R S T U V W X Y Z

Antonello Venditti - Notte Prima Degli Esami tab

Tabbed by Faidoof

L'intro e' praticamente perfetto.......

tuning=standard=EADGBE



INTRO (adattato per chitarra)

E-----------------------------------------------------------------------|
B--6--6--8--8--6--6--10-8-6-5--3---3------3-----3---5---5-6-7-8-9-10----|
G--5-5---5-5---5-5-------------3--3-3----3-3---3----5-------------------|
D--7-----------0--------------------------------------------------------|
A--------0---------------------1-------0------------3-------------------|   
E---------------------------------------------3-------------------------|

E-----------------------------------------------------------------------|
B--10--10--13--13---6---6--10-8-6-5--3---3----3-----3--5--5-6-7-8-9-10--|
G----10------14-------7--------------3--3-3--3-3---3---5----------------|
D-----------------------------------------------------------------------|
A---8-------0-------5----------------1------0----------3----------------|
E------------------------------------------------3----------------------|


 F     Am7 Dm        Dm/C               Bb
Io mi ricordo quattro ragazzi con la chitarra
  Bb/A                Gm      C 
e un pianoforte sulla spalla

F              Am7 Dm         Dm/C               Bb
Come  i pini di Roma la vita non li spezza
Bb/A                     Gm      
questa notte e' ancora nostra
C                                                    C7
Ma come fanno le segretarie con gli occhiali a farsi sposare dagli avvocati?

F                Am7          Dm      Dm/C               Bb    Bb/A   
Le bombe delle sei non fanno male e' solo il giorno che muore
 Gm                    C     C7
e' solo il giorno che muore..
 F            Am7    Dm          Dm/C                Bb   Bb/A  Gm
Gli esami sono vicini e tu sei lontana dalla mia stanza
 C                        C7
tuo padre sembra Dante e tuo fratello Ariosto
                     F       Am7         Dm
stasera al solito posto la luna sembra strana
 Dm/C             Bb  Bb/A                                       
sara' che non ti vedo    
Gm           C    C7
da una settimana....
F              Am7          Dm
Maturita' ti avessi preso prima
     Dm/C             Bb     Bb/A          Gm
le mie mani sul tuo seno e' fitto il tuo mistero
 C                                        C7
il tuo peccato e' originale come i tuoi calzoni americani
        F       Am7          Dm
non fermare ti prego le mie mani 
           Dm/C  Bb   Bb/A             Gm
sulle tue cosce tese chiuse come le chiese
                    C      C7
quando ti vuoi confessare
  F     Am7        Dm
Notte prima degli esami
          Dm/C
notte di polizia
 Bb                Bb/A        Gm
certo qualcuno te lo sei portato via
  C                          
notte di mamme e di papa' col biberon in mano
     C7
notte di nonne alla finestra
            F        Am7     Dm     Dm/C
ma questa notte e' ancora nostra
  Bb              Bb/A                           Gm
notte di giovani attori , di pizze fredde e di calzoni
            C                   C7
notte di sogni di coppe di campioni
  F          Am7        Dm
Notte di lacrime e preghiere
     Dm/A                Bb      Bb/A   Gm
la matematica non sara' mai il mio mestiere
         C                        C7
e gli aerei volano in alto tra New York e Mosca
             F        Am7    Dm
ma questa notte e' ancora nostra
   Dm/C         Bb   Bb/A              Gm
Claudia non tremare, non ti posso fare male
                C
se l'amore e' amore
   F             Am7           Dm
Si accendono le luci qui sul palco
        Dm/A
ma quanti amici attorno
 Bb      Bb/A          Gm
che viene voglia di cantare
  C                          C7
forse cambiati, certo un po' diversi
             F      Am7       Dm
ma con la voglia ancora di cambiare
  Dm/C         Bb Bb/A   
se l'amore e' amore
 Gm           C   C7
se l'amore e' amore
                F Am7 Dm
se l'amore e' amore,
     Dm/C       Bb    Bb/A  Gm
se l'amore e' amore, 
C               C7
se l'amore e' amore....


Accordi

Dm/C - x30231
Bb/A - x03331


ciao a tutti !!!!

Tap to rate this tab
# A B C D E F G H I J K L M N O P Q R S T U V W X Y Z