Guitaretab - guitar tabs
Song name
# A B C D E F G H I J K L M N O P Q R S T U V W X Y Z

Antonio Vivaldi - Concerto In D 2nd Movement tab

Antonio Vivaldi - Concerto in D minor (2nd movement)

This arrangement is inspired by Steve Howe's version, as when it is played
solo (as opposed to background orchestra strings as in he original) more
bass and substance need to be present in order to keep the tension. Enjoy!

Part A

----  CVII -------   ----  CV -------  -----  CVII ------
e-------------------|------------7-5---|--------------------|-------|
B---7-8-10---7-10-7-|-5-----5--------8-|-7-10----7-10-7-----|-------|
G-7--------7--------|---6-7------------|-------7--------9-7-|-9-----|
D-0-----------------|---------7--------|-0------------------|---7-7-|
A-------------------|-0----------------|--------------------|-0-----|
E-------------------|------------------|--------------------|-------|

       ----  CVII ---------------------------------------------------|
e----|-------------------|-7^5-7-7------------|-----------------------|
B-10-|-10-7-----10-7-----|---------12^10-12---|-12--------12----------|
G----|------9-7------9-7-|--------------------|----9-11-9----9-10-9---|
D----|-0-----------------|-5-------10---------|-----------------------|
A----|-------------------|------------------9-|-----------------------|
E----|-------------------|--------------------|-9---------9-----------|


e-----------------------|-------------------|-4^5-7-5-4-------|
B-10^8-10-10-10^8-10-10-|-10-------10-------|-----------7-5-3-|
G-----------------------|----7-9-7----7-9-7-|-----------------|
D-----------------------|-------------------|-----------------|
A-9----------9----------|-------------------|-----------------|
E-----------------------|-7--------7--------|-0---------------|

  ----  CII ---------------------------------------------------|
e-----------------|-5---------------|-5-7-5-7-------------|-----|
B-2-2-----5-2-----|---2-----5-2-----|---------10-12-10-12-|-10--|
G-----4-2-----4-2-|-----4-2-----4-2-|---------------------|-----|
D-----------------|-----------------|---------------------|-----|
A-0---------------|-0---------------|---------12----------|-12--|
E-----------------|-----------------|-5-------------------|-----|


e-----------------|----------------|-------||
B-10-9--7---------|------10------9-|-10----||
G---------9-7-6---|----9---------7-|-9-----||
D---------------9-|-11------11-9---|-11----||
A-12-11-9-7-------|-0--------------|-0-----||
E-----------------|------------0---|-------||

Repeat part A


Part B
[ Tab from: http://www.guitaretab.com/a/antonio-vivaldi/177318.html ]
 ----- CVII ------  -------------------CII ------------------------|
e-----------7-----|-----------3^2---|---------2-|-2----------------|
B-8-------8---8---|---2---2-5-----5-|-3^2-------|-----2---2---2----|
G---9---9-------8-|-3---------------|-----4-----|---4---4---4---4--|
D-----9-----------|-----4-----------|-----------|------------------|
A-7---------------|-----------------|-2-----2---|-2----------------|
E-----------------|-2---------------|-----------|------------------|

 ---- CII -------- ------------------- CVII -----------------|
e-2---------------|-7-------------------7--------------------|
B-----2---2---2---|------8----8----8---------8----8----8-----|
G---4---4---4---4-|---11---11---11---11---11---11---11---11--|
D-----------------|------------------------------------------|
A-2---------------|------------------------------------------|
E-----------------|-7-------------------7--------------------|

                      ------ CVII ------  --- CII ------------------|
e-7------------|-------------0-2-3-|-------------------|------------|
B--------------|---------2-3-------|---7-8-10---7-10-7-|-5-----5----|
G---11-9-7-6---|-4-4-2-4-----------|-7--------7--------|---6-7------|
D--------------|-------------------|-0-----------------|---------7--|
A----9-7-5-----|-------------------|-------------------|-0----------|
E-7--------6-2-|---3---------------|-------------------|------------|

        ---------- CV --------              -----  CVII --------------|
e---7---|---------5-|-5-7-5-----------|---------7-|-7-9-7--------------|
B-8---8-|-7^5-------|-------8-7-5-----|-----------|-------10-9-7-------|
G-------|-----7-----|-------------7-5-|-4-2-0-----|--------------9-7---|
D-------|-0---------|-----------------|-----------|-0------------------|
A-------|-------5---|-5---------------|-----------|--------------------|
E-------|-----------|-----------------|-3-----3---|--------------------|

         -- CV --
e----------------|---------------------------------|
B------------5-8-|-7---0---0---0---7---0---0---0---|
G-6-4------6-----|---------------------------------|
D-----7--7-------|---7---7---7---7---7---7---7---7-|
A----------------|-5---------------5---------------|
E-5------5-------|---------------------------------|


e---------------------------------|-2-3-5-----------|----||
B-5---0---0---0---8---0---0---0---|-------3---5---3-|-3--||
G---------------------------------|-----------------|----||
D---7---7---7---7---7---7---7---7-|-0-----------5---|-4--||
A---------------------------------|---------0-------|-5--||
E-5---------------5---------------|-----------------|----||

End

Transcribed by -

Ziyon Amram
Ziyonamr@Netvision.net.il
Related for Concerto In D 2nd Movement tab