Guitaretab - guitar tabs
Song name
# A B C D E F G H I J K L M N O P Q R S T U V W X Y Z

Anya Marina - Move You tab

Intro/First Verse: Fingerpick notes below several times  listen to song for picking
e-----------------|-----------------|
B-----------------|-----------------|
G---0---0---0---0-|-----------------|
D-----------------|-----------------|
A-----------------|-----------------|
E-5---4---3---2---|--2---3---4------|

Other Verses: Repeat each note several times in first measure once for each verse
e-----------------|
B-----------------|
G-----------------|
D-----------------|
A-----------------|
E-5---4---3---2---|

Chorus: F  G# - C (hammer on to A# on the G string)
F and G# are barre chords

Fill A: Fill A takes place of the C chord in the second chorus
e-----------------|
B-----------------|
G-----------------|
D-----------------|
A--3--------------|
E-----4---3---2---|

Fill B:
e-----------------|
B-----------------|
G-----------------|
D-----------------|
A--3-x---x-3-x----|
E----x-3-x---x-3--|

Bridge: Fill A  x 1, Fill B  x 2, Fill A  x 2


Lyrics: 
[ Tab from: http://www.guitaretab.com/a/anya-marina/177883.html ]
INTRO/FIRST VERSE
Bending spoons with my mind, 
manifesting men of all kinds 
in my spare time. 
But oh, how I struggled in vain, 
to solve this riddle with my brain 
when the answer's in my hands. 
So I wanna move you around. 
Got to turn you inside out. 

CHORUS
Yeah, I wanna move you, 
I wanna move you around. 
I wanna move you, 
I wanna move you around. 

VERSE
Where do you, where do you, 
where do you, where do you, 
where do you get off 
living like I'm giving it all up to come here? 

I'm moving it safe, 
moving it safe, 
moving it slow, 
teach me a lesson cause I want to know, 
if the answer's in my hands. 

CHORUS
So I wanna move you, 
I wanna move you around. 
I I I I wanna move you, 
I wanna move you around. [Fill A]
I wanna move you, 
I wanna move you around. [Fill A]

BRIDGE
Yeah yeah, you with your itinerary life, 
you're nothing, nothing, never fine in the light. 
alright,  alright 

VERSE
The nights settling, settling in your bones, 
you gotta celebrate your moments, 
look into your soul, 
you gotta give it a go. 

CHORUS
I wanna move you, 
I wanna move you around. 
I I I I wanna move you 
I wanna move you around. 
I I I I wanna kick off your boots, 
give up the fight, 
summon the night, 
sick and tired of super light. 
You gotta kick off your boots, 
give up the fight, 
summon the night, 
sick and tired of super light. 

 
I wanna move you, 
I wanna move you around. [Fill A] x 3 end on G note
Related for Move You tab