Song name
# A B C D E F G H I J K L M N O P Q R S T U V W X Y Z

Aosoon - Under tab

AOSOON - Under

I'm not a 100% sure of the chords used but it sounds pretty good. Enjoy!

No capo, standard tuning.

Riff1
e|--4-------7-------5---------------|
G|----------------------------------|
G|----------------------------------|
D|----------------------------------|
A|----------------------------------|
E|--5-------9-------7---------------|

Riff2
e|--4-4-4-4-7-7-7-7-5-5-5-5-5-5-5-5-|
G|----------------------------------|
G|----------------------------------|
D|----------------------------------|
A|----------------------------------|
E|-5-5-5-5-9-9-9-9-7-7-7-7-7-7-7-7--|

Riff2
e|--4-4-4-4-5-5-5-5-0-0-0-0-0-0-0-0-|
G|----------------------------------|
G|----------------------------------|
D|----------------------------------|
A|-----------------4-4-4-4-4-4-4-4--|
E|-4-4-4-4-5-5-5-5------------------|

Riff 1
I'm not your usual you see 
i don't take things for granted
life is no coincidence
its whats you making it 

Riff2
when we go under we don't stay down, we come up
its a crazy world you better keep your spears up (x2)


Riff3
just breath in exhale
just breath in exhale
...breath in exhale
just breath in exhale


Riff2
you can choose to run up or roll down the hill
my chain of thoughts lose me I'm on some real shit
dreams are reality realties are make belief
dreams are reality realties are make belief

when we go under we don't stay down, we come up
its a crazy world you better keep your spears up (x2)

...spears up

...spears up


Riff3
just breath in exhale (x3)
...breath in exhale
Tap to rate this tab
# A B C D E F G H I J K L M N O P Q R S T U V W X Y Z