Song name
# A B C D E F G H I J K L M N O P Q R S T U V W X Y Z

Apartment 26 - Disease tab

this band rules my granmothers crack!

E----2---3------5--54-56-4--33-452-|
B--2---2----5----------------------|
G0---------0------0-0-0------------|
D----------------------------------|
A----------------------------------|
D----------------------------------|

E----2---3------5--54-56-4--33-452-|
B--2---2----5----------------------|
G0---------0------0-0-0------------|
D----------------------------------|
A----------------------------------|
D----------------------------------|

E----2---3------5--54-56-4--33-452-|
B--2---2----5----------------------|
G0---------0------0-0-0------------|
D----------------------------------|
A----------------------------------|
D----------------------------------|

...And thats it easy as pie mmmmmmm pie!
Tap to rate this tab
# A B C D E F G H I J K L M N O P Q R S T U V W X Y Z