Song name
# A B C D E F G H I J K L M N O P Q R S T U V W X Y Z

Apocalyptica - Not Strong Enough tab

-------------------------------------------------------------------------------
             Apocalyptica - Not Strong Enough (feat. Brent Smith)              
-------------------------------------------------------------------------------
Tabbed by: radzio_
Email: root@faint.pl

Tuning: Drop B /Drop C down 1 step/ (B F# B E G# C#)

============

Verse 1

(without guitar)

Chorus

C#|--------------------------------------------------|
G#|--------------------------------------------------|
E |--------------------------5--5--5--5--5--5--5--7--|
B |--5--5--5--5--5--5--5--5--5--5--5--5--5--5--5--7--|
F#|--5--5--5--5--5--5--5--5--3--3--3--3--3--3--3--5--|
B |--5--5--5--5--5--5--5--5--------------------------|

C#|--------------------------------------------------|
G#|--------------------------------------------------|
E |--8--8--8--8--8--8--8--8--7--7--7--7--7--7--------|
B |--8--8--8--8--8--8--8--8--7--7--7--7--7--7--3--3--|
F#|--6--6--6--6--6--6--6--6--5--5--5--5--5--5--3--3--|
B |--------------------------------------------3--3--|

C#|--------------------------------------------------|
G#|--------------------------------------------------|
E |--------------------------5--5--5--5--5--5--5--7--|
B |--5--5--5--5--5--5--5--5--5--5--5--5--5--5--5--7--|
F#|--5--5--5--5--5--5--5--5--3--3--3--3--3--3--3--5--|
B |--5--5--5--5--5--5--5--5--------------------------|

C#|--------------------------------------------------|
G#|--------------------------------------------------|
E |--8--8--8--8--8--8--8--8--7--7--7--7--7--7--7--7--|
B |--8--8--8--8--8--8--8--8--7--7--7--7--7--7--7--7--|
F#|--6--6--6--6--6--6--6--6--5--5--5--5--5--5--5--5--|
B |--------------------------------------------------|

Verse 2

C#|-------------------------------------------------|
G#|-------------------------------------------------|
E |-------------------------------------------------|
B |--5-5-5----5-5----5h8---- 3-3-3----3-3----5h8----|
F#|--5-5-5----5-5------------3-3-3----3-3-----------|
B |--5-5-5----5-5------------3-3-3----3-3-----------|

C#|-------------------------------------------------|
G#|-------------------------------------------------|
E |-------------------------------------------------|
B |--1-1-1----1-1----5h8 ----0-0-0----0-0---0h3-0h3-|
F#|--1-1-1----1-1------------0-0-0----0-0-----------|
B |--1-1-1----1-1------------0-0-0----0-0-----------|

C#|-------------------------------------------------|
G#|-------------------------------------------------|
E |-------------------------------------------------|
B |--5-5-5----5-5----5h8---- 3-3-3----3-3----5h8----|
F#|--5-5-5----5-5------------3-3-3----3-3-----------|
B |--5-5-5----5-5------------3-3-3----3-3-----------|

C#|-------------------------------------------------|
G#|-------------------------------------------------|
E |--------------------------7--7--7--7--7--7--7--7-|
B |--1-1-1----1-1----5h8 ----7--7--7--7--7--7--7--7-|
F#|--1-1-1----1-1------------5--5--5--5--5--5--5--5-|
B |--1-1-1----1-1-----------------------------------|

Chorus

Bridge (I'm not sure)

C#|--------------------------------------------------|
G#|--------------------------------------------------|
E |--5--5--5--5--5--5--5--5--3--3--3--3--3--3--3--3--|
B |--5--5--5--5--5--5--5--5--3--3--3--3--3--3--3--3--|
F#|--3--3--3--3--3--3--3--3--1--1--1--1--1--1--1--1--|
B |--------------------------------------------------|

C#|--------------------------------------------------|
G#|--------------------------------------------------|
E |--5--5--5--5--5--5--5--5--3--3--3--3--3--3--3--3--|
B |--5--5--5--5--5--5--5--5--3--3--3--3--3--3--3--3--|
F#|--3--3--3--3--3--3--3--3--1--1--1--1--1--1--1--1--|
B |--------------------------------------------------|

C#|--------------------------------------------------|
G#|--------------------------------------------------|
E |--------------------------------------------------|
B |--3--3--3--3--3--3--3--3--3--3--3--3--3--3--3--3--|
F#|--3--3--3--3--3--3--3--3--3--3--3--3--3--3--3--3--|
B |--3--3--3--3--3--3--3--3--3--3--3--3--3--3--3--3--|

C#|-----------------|
G#|-----------------|
E |--7--7--7--7--7--|
B |--7--7--7--7--7--|
F#|--5--5--5--5--5--|
B |-----------------|

Chorus after bridge

C#|--------------------------------------------------|
G#|--------------------------------------------------|
E |--------------------------5--5--5--5--5--5--5--7--|
B |--5--5--5--5--5--5--5--5--5--5--5--5--5--5--5--7--|
F#|--5--5--5--5--5--5--5--5--3--3--3--3--3--3--3--5--|
B |--5--5--5--5--5--5--5--5--------------------------|

C#|--------------------------------------------------|
G#|--------------------------------------------------|
E |--8--8--8--8--8--8--8--8--7--7--7--7--7--7--------|
B |--8--8--8--8--8--8--8--8--7--7--7--7--7--7--3--3--|
F#|--6--6--6--6--6--6--6--6--5--5--5--5--5--5--3--3--|
B |--------------------------------------------3--3--|

C#|--------------------------------------------------|
G#|--------------------------------------------------|
E |--------------------------5--5--5--5--5--5--5--7--|
B |--5--5--5--5--5--5--5--5--5--5--5--5--5--5--5--7--|
F#|--5--5--5--5--5--5--5--5--3--3--3--3--3--3--3--5--|
B |--5--5--5--5--5--5--5--5--------------------------|

C#|--------------------------------------------------|
G#|--------------------------------------------------|
E |--8--8--8--8--8--8--8--8--7--7--7--7--7--7--------|
B |--8--8--8--8--8--8--8--8--7--7--7--7--7--7--3--3--|
F#|--6--6--6--6--6--6--6--6--5--5--5--5--5--5--3--3--|
B |--------------------------------------------3--3--|

C#|--------------------------------------------------|
G#|--------------------------------------------------|
E |--------------------------5--5--5--5--5--5--5--7--|
B |--5--5--5--5--5--5--5--5--5--5--5--5--5--5--5--7--|
F#|--5--5--5--5--5--5--5--5--3--3--3--3--3--3--3--5--|
B |--5--5--5--5--5--5--5--5--------------------------|

C#|--------------------------------------------------|
G#|--------------------------------------------------|
E |--8--8--8--8--8--8--8--8--7--7--7--7--7--7--------|
B |--8--8--8--8--8--8--8--8--7--7--7--7--7--7--3--3--|
F#|--6--6--6--6--6--6--6--6--5--5--5--5--5--5--3--3--|
B |--------------------------------------------3--3--|

C#|--------------------------------------------------|
G#|--------------------------------------------------|
E |--------------------------5--5--5--5--5--5--5--7--|
B |--5--5--5--5--5--5--5--5--5--5--5--5--5--5--5--7--|
F#|--5--5--5--5--5--5--5--5--3--3--3--3--3--3--3--5--|
B |--5--5--5--5--5--5--5--5--------------------------|

C#|------------------------------------------------------|
G#|------------------------------------------------------|
E |--8--8--8--8--8--8--8--8--7--7--7--7--7--7--7--7------|
B |--8--8--8--8--8--8--8--8--7--7--7--7--7--7--7--7--(5)-|
F#|--6--6--6--6--6--6--6--6--5--5--5--5--5--5--5--5--(5)-|
B |--------------------------------------------------(5)-|
Tap to rate this tab
 
# A B C D E F G H I J K L M N O P Q R S T U V W X Y Z