Song name
# A B C D E F G H I J K L M N O P Q R S T U V W X Y Z

Apoptygma Berzerk - Shine On tab

Im pretty sure this isnt 100% correct, but most parts sounds just fine, but any 
are welcome. This should at least give the idea for someone more skilled.


Intro
e|-----------------------------------------------|
B|-----------------------------------------------|
G|-----------------------------------------------| x3
D|-10-10------10-10-------8--8--10-10-6--6-------|
A|-------8--8-------8--8--------------------4--4-|
E|-----------------------------------------------|


Verse 1st part, no guitar.

Verse 2nd part

e|-----------------------------------------------|
B|-----------------------------------------------|
G|-----------------------------------------------| x3
D|-10-10------10-10-------8--8--10-10-6--6-------|
A|-------8--8-------8--8--------------------4--4-|
E|-----------------------------------------------|

e|-----------------------------------------------------------|
B|-----------------------------------------------------------|
G|-------------------------10--10--10--12--12--12--13--13----|
D|-10-10------10-10-------8---8---8---10--10--10-10--10---11-|
A|-------8--8-------8--8-------------------------------------|
E|-----------------------------------------------------------|


Chours
e|-------------------------------------------------------------------------|
B|-------------------------------------------------------------------------|
G|----------66666666----------66666666----------66666666-33333333-33333333-| x2
D|-33333333-66666666-33333333-66666666-33333333-66666666-33333333-33333333-|
A|-33333333-44444444-33333333-44444444-33333333-44444444-11111111-11111111-|
E|-11111111----------11111111----------11111111----------------------------|

e|-1-
B|-1-
G|-1- let ring
D|-3-
A|-3-
E|-1-


2nd Verse
e|-----------------------------------------------|
B|-----------------------------------------------|
G|-----------------------------------------------|
D|-10-10------10-10-------8--8--10-10-6--6-------|
A|-------8--8-------8--8--------------------4--4-|
E|-----------------------------------------------|

e|-----------------------------------------------------------|
B|-----------------------------------------------------------|
G|-------------------------10--10--10--12--12--12--13--13----|
D|-10-10------10-10-------8---8---8---10--10--10-10--10---11-|
A|-------8--8-------8--8-------------------------------------|
E|-----------------------------------------------------------|


Chours
e|-------------------------------------------------------------------------|
B|-------------------------------------------------------------------------|
G|----------66666666----------66666666----------66666666-33333333-33333333-|
D|-33333333-66666666-33333333-66666666-33333333-66666666-33333333-33333333-|
A|-33333333-44444444-33333333-44444444-33333333-44444444-11111111-11111111-|
E|-11111111----------11111111----------11111111----------------------------|

Break, no guitar

Chours
e|-------------------------------------------------------------------------|
B|-------------------------------------------------------------------------|
G|----------66666666----------66666666----------66666666-33333333-33333333-| x2
D|-33333333-66666666-33333333-66666666-33333333-66666666-33333333-33333333-|
A|-33333333-44444444-33333333-44444444-33333333-44444444-11111111-11111111-|
E|-11111111----------11111111----------11111111----------------------------|

e|-1-
B|-1-
G|-1- let ring
D|-3-
A|-3-
E|-1-
Tap to rate this tab
# A B C D E F G H I J K L M N O P Q R S T U V W X Y Z