Guitaretab - guitar tabs
Song name
# A B C D E F G H I J K L M N O P Q R S T U V W X Y Z

Apple Fiona - Criminal tab

-------------------------------------------------------------------------------
			     Criminal - Disturbed
-------------------------------------------------------------------------------
Tabbed by: Michael Capanna
Email: SpyderPB6@hotmail.com


THIS TAB HAS JUST BEEN UPDATED!!! PLEASE CHECK OUT THE NEW CHORUS!!!


I dont think I can get the Chorus any more dead on, listen very close to the song,
you will see my chorus should be almost dead on. 

I saw Disturbed Live 2 times recently and have determined that several parts of my 
tab could be updated. This should now be the most accurate available tab for this 
song! Have fun!!!!



COMMENTS AND CORRECTIONS PLEASE!




Here is Criminal. This song took alot of time to tab, the chorus was especially 
hard to get down. Please dont copy this to other sites without permission, or 
take credit for any of the work below! This song is very cool, so have fun 
with this it is pretty much dead on!

PLEASE email me with comments, or suggestions. Thanks alot!


Tuning: C# G# C# F# A# D# (Db Ab Db Gb Bb Eb)


|(3) accent note (play lightly)
| / or \  slide 
| b  bend
| h  hammer-on
| p  pull-off
|pm  palm mute
| U  up stroke
x = dead notes, or palm muted open c#, either or works.



Intro -- X1                                                                  0:00 to 0:37

e|---------------------------------------------------------------------------------------| 
B|---------------------------------------------------------------------------------------|
G|---------------------------------------------------------------------------------------|
D|-0--2---1----0-(0)--2---1----0-(0)--2--1--0-let-ring--0-12-0-12-0-12-------------------|
A|-0--2---1----0-(0)--2---1----0-(0)--2--1--0-let-ring----------------------3-1----------|
E|-0--2---1----0-(0)--2---1----0-(0)--2--1--0-let-ring-----------------0h3h5--1 ---------|
                  
                                                           


Pre-Verse -- X2                                                              0:38 to 0:56


e|---------------------------------------------------------------------------------------| 
B|---------------------------------------------------------------------------------------|
G|---------------------------------------5-----------------------------------------------|
D|------7--------------------8-----------3-----------------------------------------------|
A|------5--------3-----------6--------3--------------------------------------------------|
E|-00-0---00-0-35-535---00-0---00-0-35-5-------------------------------------------------|

e|---------------------------------------------------------------------------------------|
B|----------------------------------- ---------------------------------------------------|
G|---------------------------------------------------------------------------------------|
D|------7--------------------7-----------------------------------------------------------|
A|------5--------3-----------6--------3-1------------------------------------------------|
E|-00-0---00-0-35-535---00-0---00-0-35--1------------------------------------------------|


Verse 1 -- X1                                                                0:56 to 1:34

e|----------------------------------------------------------------------------------------| 
B|----------------------------------------------------------------------------------------|
G|----------------------------------------------------------------------------------------|
D|-------------------2---1------------------------------------------------2-(2)--1-(1)----|
A|-------------------2---1------------------------------------------------2-(2)--1-(1)----|
E|-0--0--0-0-00-xx3b-2---1---0--0-0-0-00-xx3b--0-0-00-00--0--0-0-0-00-3h5-2-(2)--1-(1)----|
   
  m-----------pm  all [3b] notes are very slight, with FAST bends   

e|---------------------------------------------------------------------------------------|
B|---------------------------------------------------------------------------------------|
G|---------------------------------------------------------------------------------------|
D|-----------------------------------------------------------2---1-----------------------|
A|-3/5-0--0--0-0-00---3h5h6--0-0-0-00---3h5h6--0-0-0-00------2---1-----------------------|
E|-3/5-0--0--0-0-00---3h5h6--0-0-0-00---3h5h6--0-0-0-00---00-2---1-----------------------|

e|--------------------------------------------------------------------------------|
B|--------------------------------------------------------------------------------|
G|--------------------------------------------------------------------------------|
D|-----------------------------------------------------2-(2)--1-(1)----7-7-7-7-7--|
A|-3/5-0-0-00---3h5h6--0-0-0-00---3h5h6--0-0-0-00---35-2-(2)--1-(1)----7-7-7-7-7--|
E|-3/5-0-0-00---3h5h6--0-0-0-00---3h5h6--0-0-0-00---35-2-(2)--1-(1)----7-7-7-7-7--|

                                                   slide if you want from 1 to 7


Chorus -- X2                                                            1:35 to 1:53

e|--------------------------------------------------------------------------------|
B|---------------------------------------------------------------------------------|
G|----------------------------------------------------------------------------------|
D|-12-12----12-12----12--10\7-----8\7---10----12\9----10\9--------------------------|
A|-12-12----12-12----13---8\7-----8\7----8----10\9----10\9----------8-7----8-7----3-|
E|-12-12-xx-12-12-xx-12---8\7--xx-8\7-xx-8-xx-10\9-xx-10\9-xx-7b-xx-8-7-xx-8-7-xx-3-|

For the dead notes, you can palm mute or do whatever you want it sounds good. Where you
see the (7b) that is a very light bend. Listen hard for that note, it is indeed there
and sounds correct when you listen very close.

Pre-Verse -- X1                                                         1:54 to 2:03

e|----------------------------------------------------------------------------------|
B|----------------------------------------------------------------------------------|
G|---------------------------------------5------------------------------------------|
D|------7--------------------8-----------3------------------------------------------|
A|------5--------3-----------6--------3---------------------------------------------|
E|-00-0---00-0-35-535---00-0---00-0-35-5--------------------------------------------|
[ Tab from: http://www.guitaretab.com/a/apple-fiona/569.html ]
e|----------------------------------------------------------------------------------|
B|----------------------------------- ----------------------------------------------|
G|----------------------------------------------------------------------------------|
D|------7--------------------7----------1-------------------------------------------|
A|------5--------3-----------6--------3-1-------------------------------------------|
E|-00-0---00-0-35-535---00-0---00-0-35--1-------------------------------------------|

 
Verse 2 -- X1                                                           2:04 to 2:34

e|----------------------------------------------------------------------------------|
B|----------------------------------------------------------------------------------|
G|----------------------------------------------------------------------------------|
D|-0letring-2-(2)---1-(1)------------------------------------------------2-(2)-1-(1)|
A|-0letring-2-(2)---1-(1)------------------------------------------------2-(2)-1-(1)|
E|-0letring-2-(2)---1-(1)--0--0-0-0-00---0--0--0--00--0h3h6-0--0--0--00--2-(2)-1-(1)|

e|----------------------------------------------------------------------------------|
B|---------------------------------------------------------------------------------|
G|--------------------------------------------------------------------------------|
D|-----------------------------------------------------2-(2)--1-(1)----7-7-7-7-7--|
A|-3/5-0-0-00---3h5h6--0-0-0-00---3h5h6--0-0-0-00---35-2-(2)--1-(1)----7-7-7-7-7--|
E|-3/5-0-0-00---3h5h6--0-0-0-00---3h5h6--0-0-0-00---35-2-(2)--1-(1)----7-7-7-7-7--|

                                                   slide if you want from 1 to 7

Chorus -- X2                                                            2:35 to 2:53

e|--------------------------------------------------------------------------------|
B|---------------------------------------------------------------------------------|
G|----------------------------------------------------------------------------------|
D|-12-12----12-12----12--10\7-----8\7---10----12\9----10\9----------------------------|
A|-12-12----12-12----13---8\7-----8\7----8----10\9----10\9----------8-7----8-7----3---|
E|-12-12-xx-12-12-xx-12---8\7--xx-8\7-xx-8-xx-10\9-xx-10\9-xx-7b-xx-8-7-xx-8-7-xx-3---|

For the dead notes, you can palm mute or do whatever you want it sounds good. Where you
see the (7b) that is a very light bend. Listen hard for that note, it is indeed there
and sounds correct when you listen very close.




Bridge -- X1                                                            2:53 to 3:48

e|----------------------------------------------------------------------------------|
B|----------------------------------------------------------------------------------|
G|----------------------------------------------------------------------------------|
D|----------------------------------------------------------------------------------|
A|-----------------------------------0--0000--0000----0000--0000-03333--------------|
E|-0000--0000----0000--0000-03333----0--0000--0000----0000--0000-03333--------------|

e|----------------------------------------------------------------------------------|
B|----------------------------------------------------------------------------------|
G|----------------------------------------------------------------------------------|
D|----------------------------------------------------------------------------------|
A|-0--0000--0000----0000--0000-01111----0--0000--0000----0000--0000-03333-----------|
E|-0--0000--0000----0000--0000-01111----0--0000--0000----0000--0000-03333-----------|

e|----------------------------------------------------------------------------------|
B|----------------------------------------------------------------------------------|
G|----------------------------------------------------------------------------------|
D|----------------------------------------------------------------------------------|
A|-0--0000--0000----0000--0000-01111------------------------------------------------|
E|-0--0000--0000----0000--0000-01111------------------------------------------------|

e|---------------------------------------------------------------------------------|
B|---------------------------------------------------------------------------------|
G|---------------------------------------------------------------------------------|
D|-3-3--530320---------3-3--530230---------0----0----0----0----0----0-0------------|
A|-3-3--------3232-----3-3--------32352----0----0----0----0----0----0-0------------|
E|-3-3------------3----3-3---------------------------------------------------------|

e|---------------------------------------------------------------------------------|
B|---------------------------------------------------------------------------------|
G|---------------------------------------------------------------------------------|
D|-0----0----0----0----0-0--3-3--530320---------3-3--530230------------------------|
A|-0----0----0----0----0-0--3-3--------3232-----3-3--------32352-------------------|
E|--------------------------3-3------------3----3-3--------------------------------|

e|---------------------------------------------------------------------------------|
B|---------------------------------------------------------------------------------|
G|----------------------------------------7----3----5----2-------------------------|
D|-3-3--530320---------3-3--53032-32-32---7----3----5----2----3-0------------------|
A|-3-3--------3232-----3-3-------3--3--3--5----1----3----0----3-0------------------|
E|-3-3------------3----3-3------------------------------------3-0------------------|

                                          U    U    U    U


Chorus -- X2                                                            3:49 to 4:07

e|---------------------------------------------------------------------------------|
B|---------------------------------------------------------------------------------|
G|---------------------------------------------------------------------------------|
D|-12-12----12-12----12--10\7-----8\7---10----12\9----10\9--------------------------|
A|-12-12----12-12----13---8\7-----8\7----8----10\9----10\9----------8-7----8-7----3-|
E|-12-12-xx-12-12-xx-12---8\7--xx-8\7-xx-8-xx-10\9-xx-10\9-xx-7b-xx-8-7-xx-8-7-xx-3-|

For the dead notes, you can palm mute or do whatever you want it sounds good. Where you
see the (7b) that is a very light bend. Listen hard for that note, it is indeed there
and sounds correct when you listen very close.

Outro -- X1                                                             4:07 to END

e|---------------------------------------------------------------------------------|
B|---------------------------------------------------------------------------------|
G|---------------------------------------------------------------------------------|
D|-0------0-------0-------0-------0-------0----------------------------------------|
A|-0------0-------0-------0-------0-------0----------------------------------------|
E|-0-0000-0--0000-0--0000-0--0000-0--0000-0----------------------------------------|


THATS IT! EMAIL COMMENTS!

Let me know what you think of the chorus!

Thanks for checking this tab out!




Related for Criminal tab