Guitaretab - guitar tabs
Song name
# A B C D E F G H I J K L M N O P Q R S T U V W X Y Z

April Wine - Enough Is Enough tab

-------------------------------------------------------------------------------
Enough is Enough – April Wine
-------------------------------------------------------------------------------
Tabbed by: Brad Chase

This is a great song that is really simple but rocks! April Wine is one of the best 
ever, so enjoy! (PS. sorry for not tabbing the solo)

Tuning: Regular

Intro: (x1)
e|---------------------------------------------------------------------------|
B|---------------------------------------------------------------------------|
G|-10—--5-----------10—--5---------10-—-5-----------10-10-10/5-------5-------|
D|-10---5---55555---10—--5---5~~~--10-—-5---55555—--10-10-10/5---5---5-------|
A|--8---3—--55555----8—--3---5~~~---8-—-3---55555—---8--8—-8/3---5---3-------|
E|----------33333------------3~~~-----------33333----------------3-----------|

Verse: (x2)
e|---------------------------------------------------------------------------|
B|---------------------------------------------------------------------------|
G|-10—--5-----------10—--5-----------10-—-5-----------10-10-10/5---------5---|
D|-10---5---55555---10—--5---55555---10-—-5---55555—--10-10-10/5-----5---5---|
A|--8---3—--55555----8—--3---55555----8-—-3---55555—---8--8—-8/3-----5---3---|
E|----------33333------------33333------------33333------------------3-------|
[ Tab from: http://www.guitaretab.com/a/april-wine/165699.html ]
Bridge: (x4)
   PM--------------------------------------------------------------------------|
e|-----------------------------------------------------------------------------|
B|-----------------------------------------------------------------------------|
G|-10-10-10-10/5-5-5-5---------------------------------------------------------|
D|-10-10-10-10/5-5-5-5-5-5-5-5-5-5---------------------------------------------|
A|--8—-8—-8—-8/3-3-3-3-5-5-5-5-5-5---------------------------------------------|
E|---------------------3-3-3-3-3-3---------------------------------------------|

Chorus: (x1)
e|---------------------------------------------------------------------------|
B|---------------------------------------------------------------------------|
G|-10—--5-----------10—--5-----------10-—-5-----------10-10-10/5---------5---|
D|-10---5---55555---10—--5---55555---10-—-5---55555—--10-10-10/5-----5---5---|
A|--8---3—--55555----8—--3---55555----8-—-3---55555—---8--8—-8/3-----5---3---|
E|----------33333------------33333------------33333------------------3-------|

Song continues as follows:
Verse:	(x2)
Bridge:	(x4)
Chorus:	(x1)
Bridge(solo):(x8)
Chorus:	(x1)
Intro: 	(x1)
Verse:	(x2)
Bridge: 	(x4)
Chorus:	(x1) and then…

Outro:
e|---------------------------------------------------------------------------|
B|---------------------------------------------------------------------------|
G|-10—--5-----------10—--5-----------10-—-5-----------10-10-10/5-------------|
D|-10---5---55555---10—--5---55555---10-—-5---55555—--10-10-10/5-----5~~~----|
A|--8---3—--55555----8—--3---55555----8-—-3---55555—---8--8—-8/3-----5~~~----|
E|----------33333------------33333------------33333------------------3~~~----|

| PM - palm mute
| / - slide
| ~ - vibrato
========================================================================
Related for Enough Is Enough tab
Enough Is Enough chords by April Wine