Song name
# A B C D E F G H I J K L M N O P Q R S T U V W X Y Z

April Wine - Weeping Widow tab

Here is a tab that dint take me much time to tab>  Enjoy !! :)



 INTRO

E|------------------|
B|---5---5---5---5--|
G|------------------| (one acoustic guitar plays this
D|------------------| throughout the intro)
A|------------------|
E|-5---5---5---5----|

E|-3--3--5--3----------------------------------------|
B|-------------3--5----------3-----3-----3-----------|
G|------------------------------5-----5-----5-----2--|(another acoustic
D|---------------------------------------------5-----|plays this along
A|---------------------------------------------------|with the above)
E|---------------------------------------------------| x 1

E|-------3--3--5--3---------------------------------------|(The 2nd
B|-5--5--------------3--5---------3-----3-----3-----------|acoustic
G|-----------------------------------5-----5-----5-----2--|then plays
D|--------------------------------------------------5-----|this for the
A|--------------------------------------------------------|rest of the
E|--------------------------------------------------------|intro)

RIFF ONE

E|------------------------|
B|------------------------| (a guitar plays this with distortion)
G|------5--7--5-----------|
D|-7-7--5--7--5--5--7--7--|
A|-7-7--3--5--3--5--7--7--|
E|-5-5-----------3--5--5--|

CHORUS
("He'll make you free...")
A5 G5 D5
E|--------------------------------|
B|--------------------------------|
G|---------------------7-7-7-7-7--| (w/ distortion)
D|-7-7-7-7-7-5-5-5-5-5-7-7-7-7-7--|
A|-7-7-7-7-7-5-5-5-5-5-5-5-5-5-5--|
E|-5-5-5-5-5-3-3-3-3-3------------|

POST CHORUS RIFF
A5 F5 B5 G5
E|-----------------------------------|
B|-----------------------------------| (w/ distortion)
G|-------------------4-4-4-----------|
D|-7-7-7----3-3-3----4-4-4----5-5-5--|
A|-7-7-7----3-3-3----2-2-2----5-5-5--|
E|-5-5-5----1-1-1-------------3-3-3--|
Tap to rate this tab
 
# A B C D E F G H I J K L M N O P Q R S T U V W X Y Z