Song name
# A B C D E F G H I J K L M N O P Q R S T U V W X Y Z

Apulanta - Mato tab

                       Apulanta - Mato

|-----------------------|----------------|
|--3-3-x-x-x-x----------|--3-------------|
|--4-4-x-x-x-x----------|--4-------------|Clean
|--5-5-x-x-x-x----------|--5-------------|
|--5-5-x-x-x-x----------|--5-------------|
|-----------------------|----------------|
    ^---7x---^
|----------------------------------------|
|----------------------------------------|
|----------------------------------------|
|----5-5--5-5--5-5--5-5-x-x-6------------|
|----5-5--5-5--5-5--5-5-x-x-6------------|
|----3-3--3-3--3-3--3-3-x-x-4------------|

        ^--4x--^

|-------------------------|
|-3--3--3--3--5--5--7--7--|
|-4--4--4--4--5--5--7--7--|
|-5--5--5--5--5--5--7--7--|Clean
|-------------------------|
|-------------------------|
          

|----------------------------------------|
|----------------------------------------|
|----------------------------------------|
|----5-5--5-5--5-5--5-5-x-x-6------------|
|----5-5--5-5--5-5--5-5-x-x-6------------|
|----3-3--3-3--3-3--3-3-x-x-4------------|


      Short tab but thats the best guitar part in the whole song
            Enjoy =)
Tap to rate this tab
 
# A B C D E F G H I J K L M N O P Q R S T U V W X Y Z