Song name
# A B C D E F G H I J K L M N O P Q R S T U V W X Y Z

Apulanta - Aamen tab

Help us improve GuitareTab! Take a short survey!
Intro
   E5                           H5
e|---------------14b15b14-12-------19-19v-------19-19v---|
H|-----------------------------12----------12------------|
G|-11-12b-11-9-------------------------------------------|
D|-------------------------------------------------------|
A|-------------------------------------------------------|
E|-------------------------------------------------------|
   D5                    G5
e|-----------------------------------------------|
H|--------------------------12-12v-----12-12v----|
G|-9b11b9-7--9b11b9-7-5--------------------------|
D|----------------------9-----------9------------|
A|-----------------------------------------------|
E|-----------------------------------------------|


Em                     Hm
Tuhanteen samanlaiseen hetkeen
D                     Em
Syntyvni tunnen uudelleen
Em                         Hm
Tullutkaan ei piv seuraavaa
D                      Em
Unohduttiin yhn tummuvaan

D         D          D
Katkeraa, katkeraa - kuinka vaan
D
Pahoillaan

Kertose

E5                         H5
Kuin rukous sun nimes ilmassa
D5                     G5
Aameneen pttyy viimeiseen
E5                      H5
Puhkeaa sun jlkes minussa
D5                  G5
Aariaan verenkarvaaseen

En haistanut luotia
Vaikka sen itse ammuinkin
Niin tulkittiin lakia
Jonka joskus itse kirjoitin

Katkeraa, katkeraa - kuinka vaan
Pahoillaan

Kuin rukous sun nimes ilmassa
Aameneen pttyy viimeiseen
Puhkeaa sun jlkes minussa
Aariaan verenkarvaaseen

Solo:
KATKERAA....
e----------------------------------------------------161820-24--------|vvv
b----------20-19v-12-19-12-12-20-12-12-21-12--------------------------|
g-/17-18--------------------------------------------------------------|
d---------------------------------------------------------------------|
a---------------------------------------------------------------------|
E---------------------------------------------------------------------|
Related for Aamen tab