Song name
# A B C D E F G H I J K L M N O P Q R S T U V W X Y Z

Ar Rahman - Tere Bina Guru tab

Hi,

This is my first ever tab written for the song Tere Bina from Guru. A.R. Rahman's 
website: www.arrahman.com

Chorus

Dam dara daum dara mast mast dara dum dara dum dara mast mast
dara dum dara dum dum, o humdum bin tere kya jeena

E|-----------------------------------------------------|
B|-0-0---0-0---0-0-0-0-0---3-0-------------------------|
G|-----2-----2-----------2-----2-2-2-0-2-2-2-2-0---0-0-|
D|-----------------------------------------------2-----|
A|-----------------------------------------------------|
E|-----------------------------------------------------|

E|--------------------------------------|
B|-----0-----0-3------------------------|
G|-0-2---0-2-----2-2-0-0-0--------------|
D|--------------------------------------|
A|--------------------------------------|
E|--------------------------------------|

1st verse

Tere bina besuadi besuadi raatiyan o sajna
Tere bina besuadi besuadi raatiyan o sajna hooo
rukhire o rukhire kature kate katena
Tere bina besuadi besuadi raatiyan o sajna
Tere bina besuadi besuadi raatiyan o sajna

E|-------0---------------------------------|
B|-3-3-3---3-1-1-3-1-0---0---------------0-|
G|---------------------2---2-0-0---0-2-2---|
D|-------------------------------2---------|
A|-----------------------------------------|
E|-----------------------------------------|

E|-------0-------------------------------------------|
B|-3-3-3---3-1-1-3-1-0---0---------------0-1-0---0-1-|
G|---------------------2---2-0-0---0-2-2-------2-----|
D|-------------------------------2-------------------|
A|---------------------------------------------------|
E|---------------------------------------------------|

E|-------------------------------0---------------|
B|-1-1-1-1-1-3-1-0---0---1-1-1-1---3-0---------0-|
G|-----------------2---2---------------2-0-2-2---|
D|-----------------------------------------------|
A|-----------------------------------------------|
E|-----------------------------------------------|

E|-------0---------------------------------|
B|-3-3-3---3-1-1-3-1-0---0---------------0-|
G|---------------------2---2-0-0---0-2-2---|
D|-------------------------------2---------|
A|-----------------------------------------|
E|-----------------------------------------|

E|-----3-0-----------------------------0---------|
B|---0-----3-1-1-3-1-0---0---------------3-0-----|
G|-2-------------------2---2-0-0---0-2-------2-0-|
D|-------------------------------2---------------|
A|-----------------------------------------------|
E|-----------------------------------------------|

Chorus

Dam dara daum dara mast mast dara dum dara dum dara mast mast
dara dum dara dum dum, o humdum bin tere kya jeena

E|-----------------------------------------------------|
B|-0-0---0-0---0-0-0-0-0---3-0-------------------------|
G|-----2-----2-----------2-----2-2-2-0-2-2-2-2-0---0-0-|
D|-----------------------------------------------2-----|
A|-----------------------------------------------------|
E|-----------------------------------------------------|

E|--------------------------------------|
B|-----0-----0-3------------------------|
G|-0-2---0-2-----2-2-0-0-0--------------|
D|--------------------------------------|
A|--------------------------------------|
E|--------------------------------------|
Tap to rate this tab
# A B C D E F G H I J K L M N O P Q R S T U V W X Y Z