Song name
# A B C D E F G H I J K L M N O P Q R S T U V W X Y Z

Ar Rahman - Nadaan Parindey tab

#----------------------------------PLEASE NOTE---------------------------------------------#
#This file is the author's own work and represents their interpretation of the #
#song. You may only use this file for private study, scholarship, or research. #
#-----------------------------------------------------------------------------------------##

 Some Symbols used:
p       -      pull off
b       -      bend
A.P     -      Alternate picking
S.P.    -      Sweep picking
T.P.    -      Tremolo picking
s       -      slide
t       -      tap
=       -      hold bend
r       -      release


This is my FIRST tab.I tabbed only the main solo because I believe the rest of the song 
is easy and also I saw there is just a single tab for this song in a site which was 
absolutely wrong ! So , I tabbed the solo. I believe its 99 % correct..!  Please 
rate and comment !!!






BEGINS WITH SWEEP PICKING....


e|----------------------9p7--------------------------------|
B|----------10------------------10-------------------------|
G|-----11------------------------------11------------------|
D|---------------------------------------------------------|   x5
A|---------------------------------------------------------|
E|---------------------------------------------------------|

 6th time..

e|-------------------7s9---------------------------|
B|-----------10------------------------------------|
G|-----11------------------------------------------|
D|-------------------------------------------------|
A|-------------------------------------------------|
E|-------------------------------------------------|

             T.P.
e|------9-12-------------12b14------------------------|
B|----------------------------------------------------|
G|----------------------------------------------------|
D|----------------------------------------------------|
A|----------------------------------------------------|
E|----------------------------------------------------|

Tapping part..

e|-t17r16----t17r16r14----t17r14r12---------------------|
B|------------------------------------------------------|
G|------------------------------------------------------|
D|------------------------------------------------------|  x4
A|------------------------------------------------------|
E|------------------------------------------------------|

Alternate picking begins here..

e|---17--14-------------------16--------------------------|
B|---------------17--14--17-------------------------------|
G|--------------------------------------------------------|   x8
D|--------------------------------------------------------|
A|--------------------------------------------------------|
E|--------------------------------------------------------|

 e|----19--14--------------------16----------------------|
B|---------------17--14--17------------------------------|
G|-------------------------------------------------------|
D|-------------------------------------------------------|  x8
A|-------------------------------------------------------|
E|-------------------------------------------------------|

e|-19b21---19--17--16---16s19--17---14----14b15s12-------------------|
B|---------------------------------------------------14--------------|
G|-------------------------------------------------------------------|
D|-------------------------------------------------------------------|
A|-------------------------------------------------------------------|
EŽ-------------------------------------------------------------------|
Tap to rate this tab
# A B C D E F G H I J K L M N O P Q R S T U V W X Y Z