Song name
# A B C D E F G H I J K L M N O P Q R S T U V W X Y Z

Arcade Fire - Suburban War tab

Song: Suburban War
Artist: Arcade Fire
Tabbed by: Jpencz (couchy@gmail.com)

Standard tuning

**First version was wrong and incomplete, my apologies. This updated version is better** 

Main melody up until 2:52

   Dm               C         F             C      
 
e|---5---5---5-----------------6-8---6-8--------8-5----|
B|-----6-------6------8-6---------------------------6--|
G|---------------5--------5----------------------------|
D|-0-------0----------------------------------0--------|
A|------------------7--------8-----8------8-7----------|
E|-----------------------------------------------------|


Interlude:

strumming F, then Am, then F, then Am, etc.

    F                          Am
    
e|--1----|                  e|-------| 
B|--1----|                  B|--1----|  
G|--2----|                  G|--2----|
D|--3----|                  D|--2----|
A|-------|                  A|-------|
E|-------|                  E|-------|    


At 2:52 when he sings "You started a war that you can't win" the guitar changes to this:

e|---6-8---6-8--6-----6-8---6-8--6-----6-8---6-8--6-----6-8---6-8--6-|
B|-------------------------------------------------------------------|
G|-------------------------------------------------------------------|
D|-0-----0--------0--------------------------------------------------|
A|------------------7-----7--------7-8-----8--------7-8-----8--------|
E|-------------------------------------------------------------------|


At 3:25

Outro:

e|---5---5---5---5---5-----------------6-8---6-8---6-8---6-8---6-8-6-|
B|-----6-------6-------6------8-6------------------------------------|
G|-----------------------5--------5----------------------------------|
D|-0-------0-------0-------------------------------------------------|
A|--------------------------7--------8-----8-----8-----8-----8-------|
E|-------------------------------------------------------------------|

e|---6---0---6---0---0---0---0---0---0---0---0---0-----|
B|-----6-------6-------6-------6-------6-------6-------|
G|-----------------------------------------------------|
D|-----------------------------------------------------|
A|-7-------7-------7-------7-------7-------7-----------|
E|-----------------------------------------------------|
Tap to rate this tab
 
# A B C D E F G H I J K L M N O P Q R S T U V W X Y Z