Song name
# A B C D E F G H I J K L M N O P Q R S T U V W X Y Z

Arch Enemy - Vultures tab

#----------------------------------PLEASE NOTE---------------------------------#
#This file is the author's own work and represents their interpretation of the #
#song. You may only use this file for private study, scholarship, or research. #
#------------------------------------------------------------------------------#

VULTURES
As recorded by Arch Enemy
(From the 2007 Album RISE OF THE TYRANT)

Transcribed by unregistered
	

Words by Angela Gossow Music by Chris/Michael Amott

Gtr I (C F A# D# G C) - 'Christopher'
Gtr II (C F A# D# G C) - 'Michael'
Gtr III (C F A# D# G C) - 'Chris - Solo 1'
Gtr IV (C F A# D# G C) - 'Michael solo 1'
Gtr V (C F A# D# G C) - 'Chris Solo 2'
Gtr VI (C F A# D# G C) - 'Michael Solo 2'

  Q=138
 4/4
                Gtr I
  W              S  S  S  S  S  S  S  S  S  S  S  S  S  S  S  S
|-------------|----------15----------15----------15----------15-|
|-------------|-13-15-16----13-15-16----13-15-16----13-15-16----|
|-------------|-------------------------------------------------|
|-------------|-------------------------------------------------|
|-------------|-------------------------------------------------|
|-------------|-------------------------------------------------|
|
| Gtr II
| H..       E    H                       Q           Q
|-------------|-------------------------------------------------|
|-------------|-------------------------------------------------|
|-------------|-------------------------------------------------|
|-------------|-------------------------------------------------|
|-------------|--3-----------------------5-----------6----------|
|-----------3-|-------------------------------------------------|


  S  S  S  S S  S  S  S S  S  S  S S  S  S  S
|---------11---------11---------11---------11--|
|-9-11-13----9-11-13----9-11-13----9-11-13-----|
|----------------------------------------------|
|----------------------------------------------|
|----------------------------------------------|
|----------------------------------------------|
|
| W
|----------------------------------------------|
|----------------------------------------------|
|----------------------------------------------|
|----------------------------------------------|
|----------------------------------------------|
|-4--------------------------------------------|


   S  S  S  S  S  S  S  S  S  S  S  S  S  S  S  S
|----------13----------13----------13----------13-|
|-12-13-15----12-13-15----12-13-15----12-13-15----|
|-------------------------------------------------|
|-------------------------------------------------|
|-------------------------------------------------|
|-------------------------------------------------|
|
|  H                       Q           Q
|-------------------------------------------------|
|-------------------------------------------------|
|-------------------------------------------------|
|-------------------------------------------------|
|--2-----------------------3-----------5----------|
|-------------------------------------------------|


   S  S  S   S  S  S  S  S  S  S  S  S  S  S  S  S
|-----------15----------15----------15----------15-|
|-13-15-16-----13-15-16----13-15-16----13-15-16----|
|--------------------------------------------------|
|--------------------------------------------------|
|--------------------------------------------------|
|--------------------------------------------------|
|
|  S  S  H.                                   E
|--------------------------------------------------|
|--------------------------------------------------|
|--------------------------------------------------|
|--------------------------------------------------|
|--6--5--3-----------------------------------------|
|---------------------------------------------3----|


   S  S  S  S  S  S  S  S  S  S  S  S  S  S  S  S
|----------15----------15----------15----------15-|
|-13-15-16----13-15-16----13-15-16----13-15-16----|
|-------------------------------------------------|
|-------------------------------------------------|
|-------------------------------------------------|
|-------------------------------------------------|
|
|  H                       Q           Q
|-------------------------------------------------|
|-------------------------------------------------|
|-------------------------------------------------|
|-------------------------------------------------|
|--3-----------------------5-----------6----------|
|-------------------------------------------------|


  S  S  S  S S  S  S  S S  S  S  S S  S  S  S
|---------11---------11---------11---------11-|
|-9-11-13----9-11-13----9-11-13----9-11-13----|
|---------------------------------------------|
|---------------------------------------------|
|---------------------------------------------|
|---------------------------------------------|
|
| W
|---------------------------------------------|
|---------------------------------------------|
|---------------------------------------------|
|---------------------------------------------|
|---------------------------------------------|
|-4-------------------------------------------|


   S  S  S  S  S  S  S  S  S  S  S  S  S  S  S  S
|----------13----------13----------13----------13-|
|-12-13-15----12-13-15----12-13-15----12-13-15----|
|-------------------------------------------------|
|-------------------------------------------------|
|-------------------------------------------------|
|-------------------------------------------------|
|
|  H                       Q           Q
|-------------------------------------------------|
|-------------------------------------------------|
|-------------------------------------------------|
|-------------------------------------------------|
|--2-----------------------3-----------5----------|
|-------------------------------------------------|


   S  S  S   S  S  S  S  S  S  S  S  S  S  S  S  S
|-----------15----------15----------15----------15-|
|-13-15-16-----13-15-16----13-15-16----13-15-16----|
|--------------------------------------------------|
|--------------------------------------------------|
|--------------------------------------------------|
|--------------------------------------------------|
|
|  S  S  H.                                   E
|--------------------------------------------------|
|--------------------------------------------------|
|--------------------------------------------------|
|---------------------------------------------5----|
|--6--5--3-----------------------------------------|
|--------------------------------------------------|


   S  S  S  S  S  S  S  S  S  S  S  S  S  S  S  S
|----------15----------15----------15----------15-|
|-13-15-16----13-15-16----13-15-16----13-15-16----|
|-------------------------------------------------|
|-------------------------------------------------|
|-------------------------------------------------|
|-------------------------------------------------|
|
|  H                       Q           Q
|-------------------------------------------------|
|-------------------------------------------------|
|--5-----------------------7-----------8----------|
|-------------------------------------------------|
|-------------------------------------------------|
|-------------------------------------------------|


  S  S  S  S S  S  S  S S  S  S  S S  S  S  S
|---------11---------11---------11---------11-|
|-9-11-13----9-11-13----9-11-13----9-11-13----|
|---------------------------------------------|
|---------------------------------------------|
|---------------------------------------------|
|---------------------------------------------|
|
| W
|---------------------------------------------|
|---------------------------------------------|
|---------------------------------------------|
|-6-------------------------------------------|
|---------------------------------------------|
|---------------------------------------------|


   S  S  S  S  S  S  S  S  S  S  S  S  S  S  S  S
|----------13----------13----------13----------13-|
|-12-13-15----12-13-15----12-13-15----12-13-15----|
|-------------------------------------------------|
|-------------------------------------------------|
|-------------------------------------------------|
|-------------------------------------------------|
|
|  H                       Q           Q
|-------------------------------------------------|
|-------------------------------------------------|
|--4-----------------------5-----------7----------|
|-------------------------------------------------|
|-------------------------------------------------|
|-------------------------------------------------|


   S  S  S   S  S  S  S  S  S  S  S  S  S  S  S  S
|-----------15----------15-16-15-13----15-13-------|
|-13-15-16-----13-15-16-------------16-------16-15-|
|--------------------------------------------------|
|--------------------------------------------------|
|--------------------------------------------------|
|--------------------------------------------------|
|
|  S  S  H.                                   E
|--------------------------------------------------|
|--------------------------------------------------|
|--8--7--5-----------------------------------------|
|---------------------------------------------5----|
|--------------------------------------------------|
|--------------------------------------------------|


   S  S  S  S  S  S  S  S  S  S  S  S  S  S  S  S
|----------15----------15----------15----------15-|
|-13-15-16----13-15-16----13-15-16----13-15-16----|
|-------------------------------------------------|
|-------------------------------------------------|
|-------------------------------------------------|
|-------------------------------------------------|
|
|  H                       Q           Q
|-------------------------------------------------|
|-------------------------------------------------|
|--5-----------------------7-----------8----------|
|-------------------------------------------------|
|-------------------------------------------------|
|-------------------------------------------------|


  S  S  S    S S  S  S  S S  S  S  S S  S  S  S
|-----------11---------11---------11---------11-|
|-9-11-13------9-11-13----9-11-13----9-11-13----|
|-----------------------------------------------|
|-----------------------------------------------|
|-----------------------------------------------|
|-----------------------------------------------|
|
| S  S  H..
|-----------------------------------------------|
|-9p=7h=9---------------------------------------|
|-----------------------------------------------|
|-----------------------------------------------|
|-----------------------------------------------|
|-----------------------------------------------|


                          Q=90
   S  S  S  S  S  S  S  S  S  S  S  S  S  S  S  S
|----------13----------13----------13----------13-|
|-12-13-15----12-13-15----12-13-15----12-13-15----|
|-------------------------------------------------|
|-------------------------------------------------|
|-------------------------------------------------|
|-------------------------------------------------|
|
|  H                       Q           Q
|-------------------------------------------------|
|-------------------------------------------------|
|--4-----------------------5-----------7----------|
|-------------------------------------------------|
|-------------------------------------------------|
|-------------------------------------------------|


   E  E  E  E  S  S  S  S  Q
|-11-13-11-13-11-13-11-13-11tr13---|
|----------------------------------|
|----------------------------------|
|----------------------------------|
|----------------------------------|
|----------------------------------|
|
|  E  E  E  E  S  S  S  S  Q
|----------------------------------|
|----------------------------------|
|--5--7--5--7--5--7--5--7--5tr7----|
|----------------------------------|
|----------------------------------|
|----------------------------------|


  Q=138
   Q   H.        H      H
|-11\----------|--------------|
|--------------|--------------|
|--------------|--------------|
|--------------|--------------|
|--------------|------/12\----|
|--------------|------/12\----|
|
|  Q   H.        H      H
|--------------|--------------|
|--------------|--------------|
|--5\----------|--------------|
|--------------|--------------|
|--------------|------/12\----|
|--------------|------/12\----|


     S S S  S S S  S S S  S S S  S S  S S   S S S S S S S S S S S S S S S S
||----------------------------------------|----------------------------------|
||o---------------------------------------|----------------------------------|
||----------------------------------------|----------------------------------|
||--10p7---10p7---10p7---10p7---10p7-10p7-|-9p6---9p6---9p6---9p6---9p6-9p6--|
||o------0------0------0------0-----------|-----0-----0-----0-----0----------|
||----------------------------------------|----------------------------------|
|
|    S S S  S S S  S S S  S S S  S S  S S   S S S S S S S S S S S S S S S S
||----------------------------------------|----------------------------------|
||o---------------------------------------|----------------------------------|
||---9p5----9p5----9p5----9p5----9p5--9p5-|-8p4---8p4---8p4---8p4---8p4-8p4--|
||----------------------------------------|----------------------------------|
||o------0------0------0------0-----------|-----0-----0-----0-----0----------|
||----------------------------------------|----------------------------------|


  S S S S S S S S S S S S S S S S   S S S S S S S S S S S S S S S S
|---------------------------------|----------------------------------||
|---------------------------------|---------------------------------o||
|---------------------------------|----------------------------------||
|-9p5---9p5---9p5---9p5---9p5-9p5-|-7p4-7p4---------7p4-7p4----------||
|-----0-----0-----0-----0---------|---------0-0-0-0---------0-0-0-0-o||
|---------------------------------|----------------------------------||
|
| S S S S S S S S S S S S S S S S   S S S S S S S S S S S S S S S S
|---------------------------------|----------------------------------||
|---------------------------------|---------------------------------o||
|-7p4---7p4---7p4---7p4---7p4-7p4-|-5p2-5p2---------5p2-5p2----------||
|---------------------------------|----------------------------------||
|-----0-----0-----0-----0---------|---------0-0-0-0---------0-0-0-0-o||
|---------------------------------|----------------------------------||


    S S S  S S S  S S S  S S S  S S  S S    S S S S S S S S S S S S S S  S S
|----------------------------------------|-----------------------------------|
|----------------------------------------|-----------------------------------|
|----------------------------------------|-----------------------------------|
|--10p7---10p7---10p7---10p7---10p7-10p7-|--9p6---9p6---9p6---9p6---9p6--9p6-|
|-------0------0------0------0-----------|------0-----0-----0-----0----------|
|----------------------------------------|-----------------------------------|
|
|   S S S  S S S  S S S  S S S  S S  S S    S S S S S S S S S S S S S S  S S
|----------------------------------------|-----------------------------------|
|----------------------------------------|-----------------------------------|
|---9p5----9p5----9p5----9p5----9p5--9p5-|--8p4---8p4---8p4---8p4---8p4--8p4-|
|----------------------------------------|-----------------------------------|
|-------0------0------0------0-----------|------0-----0-----0-----0----------|
|----------------------------------------|-----------------------------------|
|
| Gtr III
|   ~~~~                                    ~~~
|   H.                          Q           H.                      E    E
|------------------------------12--------|-11---------------------------11---|
|-/10------------------------------------|--------------------------9--------|
|----------------------------------------|-----------------------------------|
|----------------------------------------|-----------------------------------|
|----------------------------------------|-----------------------------------|
|----------------------------------------|-----------------------------------|


   S S S S S S S S S  S S S S S  S S     S  S S S S S S  S S S S S S S  S S
|------------------------------------|--------------------------------------|
|------------------------------------|--------------------------------------|
|------------------------------------|--------------------------------------|
|--9p5---9p5---9p5----9p5---9p5--9p5-|---7p=4-7p4----------7p4-7p4----------|
|------0-----0-----0------0----------|------------0-0-0--0---------0-0--0-0-|
|------------------------------------|--------------------------------------|
|
|  S S S S S S S S S  S S S S S  S S     S  S S S S S S  S S S S S S S  S S
|------------------------------------|--------------------------------------|
|------------------------------------|--------------------------------------|
|--7p4---7p4---7p4----7p4---7p4--7p4-|---5p=2-5p2----------5p2-5p2----------|
|------------------------------------|--------------------------------------|
|------0-----0-----0------0----------|------------0-0-0--0---------0-0--0-0-|
|------------------------------------|--------------------------------------|
|
|  ~~~                           ~~~~~~~~~~~
|  H               S  S S S S S  E      +Q.           Q.           E    E
|-10---------------8h10p8-7h8p7------|--------------------------------------|
|-------------------------------10---|-(10)------------------------9---10---|
|------------------------------------|--------------------------------------|
|------------------------------------|--------------------------------------|
|------------------------------------|--------------------------------------|
|------------------------------------|--------------------------------------|


   S    S S  S S S  S S S  S S S  S S  S S
|------------------------------------------|
|------------------------------------------|
|------------------------------------------|
|-10p===7---10p7---10p7---10p7---10p7-10p7-|
|---------0------0------0------0-----------|
|------------------------------------------|
|
|  S    S S  S S S  S S S  S S S  S S  S S
|------------------------------------------|
|------------------------------------------|
|--9p===5----9p5----9p5----9p5----9p5--9p5-|
|------------------------------------------|
|---------0------0------0------0-----------|
|------------------------------------------|
|
|                                 ~~~
|  H.                             Q
|-22b24r=========================24--------|
|------------------------------------------|
|------------------------------------------|
|------------------------------------------|
|------------------------------------------|
|------------------------------------------|


   S    S  S S  S    S S S  S S S S S S S S
|-------------------------------------------|
|-------------------------------------------|
|-------------------------------------------|
|--9p===6----9p=6------9p6----9p6---9p6-9p6-|
|----------0---------0------0-----0---------|
|-------------------------------------------|
|
|  S    S  S S  S    S S S  S S S S S S S S
|-------------------------------------------|
|-------------------------------------------|
|--8p===4----8p=4------8p4----8p4---8p4-8p4-|
|-------------------------------------------|
|----------0---------0------0-----0---------|
|-------------------------------------------|
|
|          ~~               ~~
|  E       E    Q           H
|-22b24r==24---22b24r======23---------------|
|-------------------------------------------|
|-------------------------------------------|
|-------------------------------------------|
|-------------------------------------------|
|-------------------------------------------|


    S  S S S  S S  S S  S S S S S S S S
|---------------------------------------|
|---------------------------------------|
|---------------------------------------|
|---9p=5---9p=5----9p5----9p5---9p5-9p5-|
|--------0------0-------0-----0---------|
|---------------------------------------|
|
|   S  S S S  S S  S S  S S S S S S S S
|---------------------------------------|
|---------------------------------------|
|---7p=4---7p=4----7p4----7p4---7p4-7p4-|
|---------------------------------------|
|--------0------0-------0-----0---------|
|---------------------------------------|
|
|   ~~~~                ~~
|  +Q         E    E    H
|-(23)------------23---22---------------|
|------------22-------------------------|
|---------------------------------------|
|---------------------------------------|
|---------------------------------------|
|---------------------------------------|


   S    S S S  S  S  S  S    S  S   S  S  S S S S
|-------------------------------------------------|
|-------------------------------------------------|
|-------------------------------------------------|
|--7p===4-7p4----------------7p=4---7p=4----------|
|--------------0--0--0--0-----------------0-0-0-0-|
|-------------------------------------------------|
|
|  S    S S S  S  S  S  S    S  S   S  S  S S S S
|-------------------------------------------------|
|-------------------------------------------------|
|--5p===2-5p2----------------5p=2---5p=2----------|
|-------------------------------------------------|
|--------------0--0--0--0-----------------0-0-0-0-|
|-------------------------------------------------|
|
|                                         ~~
|  Q           S  S  S  E       S   E     Q
|-20b22r======22-20p19-19b21r==20rp19rp==17-------|
|-------------------------------------------------|
|-------------------------------------------------|
|-------------------------------------------------|
|-------------------------------------------------|
|-------------------------------------------------|


  W           W          W           W
|----------|-----------|----------|-------|
|----------|-----------|----------|-------|
|----------|-----------|----------|-------|
|-9--------|-10--------|-9--------|-10----|
|-7--------|--7--------|-6--------|--6----|
|----------|-----------|----------|-------|
|
| W           W          W           W
|----------|-----------|----------|-------|
|----------|-----------|----------|-------|
|----------|-----------|----------|-------|
|-9--------|-10--------|-9--------|-10----|
|-7--------|--7--------|-6--------|--6----|
|----------|-----------|----------|-------|


  W          W          W          E E E E S S S S E E
|----------|----------|----------|---------------------|
|----------|----------|----------|---------------------|
|----------|----------|----------|---------------------|
|-7--------|-8--------|-7--------|-----2-5-7-5h7p5-----|
|-5--------|-5--------|-4--------|-4-3-------------8-7-|
|----------|----------|----------|---------------------|
|
| W          W          W          E E E E S S S S E E
|----------|----------|----------|---------------------|
|----------|----------|----------|---------------------|
|----------|----------|----------|---------5-4h5p4-2---|
|-7--------|-8--------|-7--------|-----2-5-----------5-|
|-5--------|-5--------|-4--------|-4-3-----------------|
|----------|----------|----------|---------------------|


  E S S S S E S S S S E S S    E S S S S  E S S S S  E S S
|---------------------------|-------------------------------|
|---------------------------|-------------------------------|
|---------------------------|-------------------------------|
|-9---------9---------9-----|-10---------10---------10------|
|---7-7-7-7---7-7-7-7---7-7-|----7-7-7-7----7-7-7-7----7-7--|
|---------------------------|-------------------------------|
|
| E S S S S E S S S S E S S    E S S S S  E S S S S  E S S
|---------------------------|-------------------------------|
|---------------------------|-------------------------------|
|-9---------9---------9-----|--9----------9----------9------|
|---------------------------|-------------------------------|
|---7-7-7-7---7-7-7-7---7-7-|----7-7-7-7----7-7-7-7----7-7--|
|---------------------------|-------------------------------|


  E S S S S E S S S S E S S    E S S S S  E S S S S  E S S
|---------------------------|-------------------------------|
|---------------------------|-------------------------------|
|---------------------------|-------------------------------|
|-9---------9---------9-----|-10---------10---------10------|
|---6-6-6-6---6-6-6-6---6-6-|----6-6-6-6----6-6-6-6----6-6--|
|---------------------------|-------------------------------|
|
| E S S S S E S S S S E S S    E S S S S  E S S S S  E S S
|---------------------------|-------------------------------|
|---------------------------|-------------------------------|
|-8---------8---------8-----|--8----------8----------8------|
|---------------------------|-------------------------------|
|---6-6-6-6---6-6-6-6---6-6-|----6-6-6-6----6-6-6-6----6-6--|
|---------------------------|-------------------------------|


  E S S S S E S S S S E S S   E S S S S E S S S S E S S
|---------------------------|----------------------------|
|---------------------------|----------------------------|
|---------------------------|----------------------------|
|-7---------7---------7-----|-8---------8---------8------|
|---5-5-5-5---5-5-5-5---5-5-|---5-5-5-5---5-5-5-5---5-5--|
|---------------------------|----------------------------|
|
| E S S S S E S S S S E S S   E S S S S E S S S S E S S
|---------------------------|----------------------------|
|---------------------------|----------------------------|
|-7---------7---------7-----|-7---------7---------7------|
|---------------------------|----------------------------|
|---5-5-5-5---5-5-5-5---5-5-|---5-5-5-5---5-5-5-5---5-5--|
|---------------------------|----------------------------|


  E S S S S E S S S S E S S   E  S E E E S S S  E    E
|---------------------------|--------------------------|
|---------------------------|--------------------------|
|---------------------------|--------------------------|
|-7---------7---------7-----|-7----2-5-7-5h7p5---------|
|---4-4-4-4---4-4-4-4---4-4-|----3--------------8----7-|
|---------------------------|--------------------------|
|
| E S S S S E S S S S E S S   E  S E E E S S S  E    E
|---------------------------|--------------------------|
|---------------------------|--------------------------|
|-6---------6---------6-----|-6--------5-4h5p4--2------|
|---------------------------|------2-5---------------5-|
|---4-4-4-4---4-4-4-4---4-4-|----3---------------------|
|---------------------------|--------------------------|
|
| Gtr IV
| W                           H.                Q
|---------------------------|------------------21b23r==|
|---------------------------|--------------------------|
|---------------------------|--------------------------|
|---------------------------|--------------------------|
|---------------------------|--------------------------|
|---------------------------|--------------------------|


   S S S  S S S  S S  S  S S S  S S  S S
|----------------------------------------|
|----------------------------------------|
|----------------------------------------|
|-10p7---10p7---10p7----10p7---10p7-10p7-|
|------0------0-------0------0-----------|
|----------------------------------------|
|
|  S S S  S S S  S S  S  S S S  S S  S S
|----------------------------------------|
|----------------------------------------|
|--9p5----9p5----9p5-----9p5----9p5--9p5-|
|----------------------------------------|
|------0------0-------0------0-----------|
|----------------------------------------|
|
|                     ~~
|  H                  H
|-25s================21------------------|
|----------------------------------------|
|----------------------------------------|
|----------------------------------------|
|----------------------------------------|
|----------------------------------------|


   S  S  S  S  S  S  S S  S    S S S S S S S
|--------------------------------------------|
|--------------------------------------------|
|--------------------------------------------|
|--9p=6-----9p=6-----9p6-------9p6---9p6-9p6-|
|--------0--------0-------0--------0---------|
|--------------------------------------------|
|
|  S  S  S  S  S  S  S S  S    S S S S S S S
|--------------------------------------------|
|--------------------------------------------|
|--8p=4-----8p=4-----8p4-------8p4---8p4-8p4-|
|--------------------------------------------|
|--------0--------0-------0--------0---------|
|--------------------------------------------|
|
|                         ~~~~~
|  S  S  S  S  S  S  E    H
|-19----------------17---17b19---------------|
|----19----------17--------------------------|
|-------17----17-----------------------------|
|----------19--------------------------------|
|--------------------------------------------|
|--------------------------------------------|


   S    S S S S S S S  S S  S S  S  S  S  S
|-------------------------------------------|
|-------------------------------------------|
|-------------------------------------------|
|--9p===5---9p5---9p5----9p=5----9p=5--9p=5-|
|---------0-----0------0------0-------------|
|-------------------------------------------|
|
|  S    S S S S S S S  S S  S S  S  S  S  S
|-------------------------------------------|
|-------------------------------------------|
|--7p===4---7p4---7p4----7p=4----7p=4--7p=4-|
|-------------------------------------------|
|---------0-----0------0------0-------------|
|-------------------------------------------|
|
|  ~~~~~
|  H                   E    E    S  S  S  S
|-------------------------------------------|
|-15b17---------------17---18---17h18p17-15-|
|-------------------------------------------|
|-------------------------------------------|
|-------------------------------------------|
|-------------------------------------------|


   S S  S S  S S  S S  S S S S S S S S
|--------------------------------------|
|--------------------------------------|
|--------------------------------------|
|--7p4--7p4------------7p4-7p4---------|
|------------0-0--0-0----------0-0-0-0-|
|--------------------------------------|
|
|  S S  S S  S S  S S  S S S S S S S S
|--------------------------------------|
|--------------------------------------|
|--5p2--5p2------------5p2-5p2---------|
|--------------------------------------|
|------------0-0--0-0----------0-0-0-0-|
|--------------------------------------|
|
|  E    E    E    E    H
|--------------------------------------|
|-17---15------------------------------|
|-----------17---16---14---------------|
|--------------------------------------|
|--------------------------------------|
|--------------------------------------|


   S   S    S    S   S    S    S   S    S    S   S    S    S   S     S    S
|-----------------------------------------------------------------------------|
|-----------------------------------------------------------------------------|
|-----------------------------------------------------------------------------|
|-10p==7--------10p==7--------10p==7--------10p==7--------10p==7----10p===7---|
|-----------0-------------0-------------0-------------0-----------------------|
|-----------------------------------------------------------------------------|
|
|  S   S    S    S   S    S    S   S    S    S   S    S    S   S     S    S
|-----------------------------------------------------------------------------|
|-----------------------------------------------------------------------------|
|--9p==5---------9p==5---------9p==5---------9p==5---------9p==5-----9p===5---|
|-----------------------------------------------------------------------------|
|-----------0-------------0-------------0-------------0-----------------------|
|-----------------------------------------------------------------------------|
|
|  T      T      T      T      T      T      T      T      T      T       T
|  T T T  T T T  T T T  T T T  T T T  T T T  T T T  T T T  T T T  T  T T  T T
|-12-5h8-12-5h8-12-5h8-12-5h8-12-5h8-12-5h8-13-5h8-13-5h8-13-5h8-13--5h8-13-5h|
|-----------------------------------------------------------------------------|
|-----------------------------------------------------------------------------|
|-----------------------------------------------------------------------------|
|-----------------------------------------------------------------------------|
|-----------------------------------------------------------------------------|


  S    S     S    S    S     S    S    S     S    S    S     S    S    S     S    S
|---------------------------------------------------------------------------------------|
|---------------------------------------------------------------------------------------|
|---------------------------------------------------------------------------------------|
|-9p===6----------9p===6----------9p===6----------9p===6----------9p===6-----9p===6-----|
|------------0---------------0---------------0---------------0--------------------------|
|---------------------------------------------------------------------------------------|
|
| S    S     S    S    S     S    S    S     S    S    S     S    S    S     S    S
|---------------------------------------------------------------------------------------|
|---------------------------------------------------------------------------------------|
|-8p===4----------8p===4----------8p===4----------8p===4----------8p===4-----8p===4-----|
|---------------------------------------------------------------------------------------|
|------------0---------------0---------------0---------------0--------------------------|
|---------------------------------------------------------------------------------------|
|
|    T       T       T       T       T       T       T       T       T       T
| T  T T  T  T T  T  T T  T  T T  T  T T  T  T T  T  T T  T  T T  T  T T  T  T T  T  T
|-8-15-7h10-15-7h10-15-7h10-15-7h10-15-7h10-17-7h10-17-7h10-17-7h10-17-7h10-17-7h10-20p=|
|---------------------------------------------------------------------------------------|
|---------------------------------------------------------------------------------------|
|---------------------------------------------------------------------------------------|
|---------------------------------------------------------------------------------------|
|---------------------------------------------------------------------------------------|


   S     S     S     S     S     S     S     S     S  S  S  S  S S  S S
|-----------------------------------------------------------------------|
|-----------------------------------------------------------------------|
|-----------------------------------------------------------------------|
|--9p====5-----------9p====5-----------9p====5--------9p=5-----9p5--9p5-|
|--------------0-----------------0-----------------0--------0-----------|
|-----------------------------------------------------------------------|
|
|  S     S     S     S     S     S     S     S     S  S  S  S  S S  S S
|-----------------------------------------------------------------------|
|-----------------------------------------------------------------------|
|--7p====4-----------7p====4-----------7p====4--------7p=4-----7p4--7p4-|
|-----------------------------------------------------------------------|
|--------------0-----------------0-----------------0--------0-----------|
|-----------------------------------------------------------------------|
|
|  T  T  T  T  T  T  T  T  T  T  T  T  T  T  T  T  S  S  S  S  E    E
|-19h20p19h20p15h20p17h20p13h20p15h20p13h20p15h20p13h20p12p10-12---13---|
|-----------------------------------------------------------------------|
|-----------------------------------------------------------------------|
|-----------------------------------------------------------------------|
|-----------------------------------------------------------------------|
|-----------------------------------------------------------------------|


   S  S  S  S  S  S S  S S  S S S S S S  S
|----------------------------------------------|
|----------------------------------------------|
|----------------------------------------------|
|--7p=4--7p=4------------7p=4-7p4--------------|
|--------------0--0-0--0----------0-0-0--0-----|
|----------------------------------------------|
|
|  S  S  S  S  S  S S  S S  S S S S S S  S
|----------------------------------------------|
|----------------------------------------------|
|--5p=2--5p=2------------5p=2-5p2--------------|
|----------------------------------------------|
|--------------0--0-0--0----------0-0-0--0-----|
|----------------------------------------------|
|
|  S  S  S  S  S  S S  S S  S S S S S S  S
|-12h13p12-10h12p10-8-10-8h10p8p7-8-7p5--------|
|---------------------------------------10b12r=|
|----------------------------------------------|
|----------------------------------------------|
|----------------------------------------------|
|----------------------------------------------|


   W              W          W           W
|--------------|-----------|----------|-------|
|--------------|-----------|----------|-------|
|--------------|-----------|----------|-------|
|--9-----------|-10--------|-9--------|-10----|
|--7-----------|--7--------|-6--------|--6----|
|--------------|-----------|----------|-------|
|
|  W              W          W           W
|--------------|-----------|----------|-------|
|--------------|-----------|----------|-------|
|--------------|-----------|----------|-------|
|--9-----------|-10--------|-9--------|-10----|
|--7-----------|--7--------|-6--------|--6----|
|--------------|-----------|----------|-------|
|
|  ~~~
|  Q   H.         W          W           W
|-12\----------|-----------|----------|-------|
|--------------|-----------|----------|-------|
|--------------|-----------|----------|-------|
|--------------|-----------|----------|-------|
|--------------|-----------|----------|-------|
|--------------|-----------|----------|-------|


  W          W          W          E E E E S S S S E E
|----------|----------|----------|---------------------|
|----------|----------|----------|---------------------|
|----------|----------|----------|---------------------|
|-7--------|-8--------|-7--------|-----2-5-7-5h7p5-----|
|-5--------|-5--------|-4--------|-4-3-------------8-7-|
|----------|----------|----------|---------------------|
|
| W          W          W          E E E E S S S S E E
|----------|----------|----------|---------------------|
|----------|----------|----------|---------------------|
|----------|----------|----------|---------5-4h5p4-2---|
|-7--------|-8--------|-7--------|-----2-5-----------5-|
|-5--------|-5--------|-4--------|-4-3-----------------|
|----------|----------|----------|---------------------|


  E S S S S E S S S S E S S    E S S S S  E S S S S  E S S
|---------------------------|-------------------------------|
|---------------------------|-------------------------------|
|---------------------------|-------------------------------|
|-9---------9---------9-----|-10---------10---------10------|
|---7-7-7-7---7-7-7-7---7-7-|----7-7-7-7----7-7-7-7----7-7--|
|---------------------------|-------------------------------|
|
| E S S S S E S S S S E S S    E S S S S  E S S S S  E S S
|---------------------------|-------------------------------|
|---------------------------|-------------------------------|
|-9---------9---------9-----|--9----------9----------9------|
|---------------------------|-------------------------------|
|---7-7-7-7---7-7-7-7---7-7-|----7-7-7-7----7-7-7-7----7-7--|
|---------------------------|-------------------------------|


  E S S S S E S S S S E S S    E S S S S  E S S S S  E S S
|---------------------------|-------------------------------|
|---------------------------|-------------------------------|
|---------------------------|-------------------------------|
|-9---------9---------9-----|-10---------10---------10------|
|---6-6-6-6---6-6-6-6---6-6-|----6-6-6-6----6-6-6-6----6-6--|
|---------------------------|-------------------------------|
|
| E S S S S E S S S S E S S    E S S S S  E S S S S  E S S
|---------------------------|-------------------------------|
|---------------------------|-------------------------------|
|-8---------8---------8-----|--8----------8----------8------|
|---------------------------|-------------------------------|
|---6-6-6-6---6-6-6-6---6-6-|----6-6-6-6----6-6-6-6----6-6--|
|---------------------------|-------------------------------|


  E S S S S E S S S S E S S   E S S S S E S S S S E S S
|---------------------------|----------------------------|
|---------------------------|----------------------------|
|---------------------------|----------------------------|
|-7---------7---------7-----|-8---------8---------8------|
|---5-5-5-5---5-5-5-5---5-5-|---5-5-5-5---5-5-5-5---5-5--|
|---------------------------|----------------------------|
|
| E S S S S E S S S S E S S   E S S S S E S S S S E S S
|---------------------------|----------------------------|
|---------------------------|----------------------------|
|-7---------7---------7-----|-7---------7---------7------|
|---------------------------|----------------------------|
|---5-5-5-5---5-5-5-5---5-5-|---5-5-5-5---5-5-5-5---5-5--|
|---------------------------|----------------------------|


  E S S S S E S S S S E S S   E S E E E S S S E E
|---------------------------|---------------------|
|---------------------------|---------------------|
|---------------------------|---------------------|
|-7---------7---------7-----|-7---2-5-7-5h7p5-----|
|---4-4-4-4---4-4-4-4---4-4-|---3-------------8-7-|
|---------------------------|---------------------|
|
| E S S S S E S S S S E S S   E S E E E S S S E E
|---------------------------|---------------------|
|---------------------------|---------------------|
|-6---------6---------6-----|-6-------5-4h5p4-2---|
|---------------------------|-----2-5-----------5-|
|---4-4-4-4---4-4-4-4---4-4-|---3-----------------|
|---------------------------|---------------------|


   H     E  E  E  E    H    E  E E  E    H     E  E  E E
|-------------------|-----------------|------------------|
|-------------------|-----------------|------------------|
|-16----14-12-14-12-|-11----9-11-9S14-|-12----11-12-11-9-|
|-------------------|-----------------|------------------|
|-------------------|-----------------|------------------|
|-------------------|-----------------|------------------|
|
|  W                   W                 W
|-------------------|-----------------|------------------|
|-------------------|-----------------|------------------|
|-------------------|-----------------|------------------|
|--5----------------|--4--------------|--9---------------|
|--3----------------|--2--------------|--7---------------|
|-------------------|-----------------|------------------|


  H    E  E  E E    H     E  E  E  E
|----------------|-------------------|
|----------------|-------------------|
|-9----9-11-12-9S|=16----14-12-14-12-|
|----------------|-------------------|
|----------------|-------------------|
|----------------|-------------------|
|
| W                 W
|----------------|-------------------|
|----------------|-------------------|
|----------------|-------------------|
|-7--------------|--5----------------|
|-4--------------|--3----------------|
|----------------|-------------------|


                                      ~~
   H     E  E  Q     +W               W
|-----------------|----------------|---------------|
|-----------------|----------------|---------------|
|-11----12-11-----|----------------|---------------|
|-------------12--|-(12)b14--------|---------------|
|-----------------|----------------|-12------------|
|-----------------|----------------|---------------|
|
|                                             ~
|  W                  W               E E E E H
|-----------------|----------------|---------------|
|-----------------|----------------|---------------|
|-----------------|----------------|--7-6----------|
|--4--------------|---2------------|------5--------|
|--2--------------|---0------------|--------7-5----|
|-----------------|----------------|---------------|


   H     E  E  E  E    H     E  E  E  E    H     E  E  E  E
|-19----17-15-17-15-|-14----12-14-12S17-|-15----14-15-14-12-|
|-------------------|-------------------|-------------------|
|-------------------|-------------------|-------------------|
|-------------------|-------------------|-------------------|
|-------------------|-------------------|-------------------|
|-------------------|-------------------|-------------------|
|
|  W                   W                   W
|-------------------|-------------------|-------------------|
|-------------------|-------------------|-------------------|
|-------------------|-------------------|-------------------|
|--5----------------|--4----------------|--9----------------|
|--3----------------|--2----------------|--7----------------|
|-------------------|-------------------|-------------------|


   H     E  E  E  E    H     E  E  E  E
|-12----12-14-15-12S|=19----17-15-17-15-|
|-------------------|-------------------|
|-------------------|-------------------|
|-------------------|-------------------|
|-------------------|-------------------|
|-------------------|-------------------|
|
|  W                   W
|-------------------|-------------------|
|-------------------|-------------------|
|-------------------|-------------------|
|--7----------------|--5----------------|
|--4----------------|--3----------------|
|-------------------|-------------------|


                                      ~~
   H     E  E  Q     +W               W
|-14----15-14-----|----------------|---------------|
|-------------15--|-(15)b17--------|---------------|
|-----------------|----------------|-14------------|
|-----------------|----------------|---------------|
|-----------------|----------------|---------------|
|-----------------|----------------|---------------|
|
|                                             ~
|  W                  W               E E E E H
|-----------------|----------------|---------------|
|-----------------|----------------|---------------|
|-----------------|----------------|--7-6----------|
|--4--------------|---2------------|------5--------|
|--2--------------|---0------------|--------7-5----|
|-----------------|----------------|---------------|


   S S S  S S S  S S S  S S S  S S  S S    S S S S S S S S S S S S  S S  S S
|---------------------------------------|------------------------------------|
|---------------------------------------|------------------------------------|
|---------------------------------------|------------------------------------|
|-10p7---10p7---10p7---10p7---10p7-10p7-|--9p6---9p6---9p6---9p6----9p6--9p6-|
|------0------0------0------0-----------|------0-----0-----0-----0-----------|
|---------------------------------------|------------------------------------|
|
|  S S S  S S S  S S S  S S S  S S  S S    S S S S S S S S S S S S  S S  S S
|---------------------------------------|------------------------------------|
|---------------------------------------|------------------------------------|
|--9p5----9p5----9p5----9p5----9p5--9p5-|--8p4---8p4---8p4---8p4----8p4--8p4-|
|---------------------------------------|------------------------------------|
|------0------0------0------0-----------|------0-----0-----0-----0-----------|
|---------------------------------------|------------------------------------|
|
| Gtr V
|  ~~~                                     ~~~
|  H.                          Q           H.                       E    E
|---------------------------------------|------------------------------------|
|-----------------------------17--------|-16----------------------------16---|
|-14------------------------------------|--------------------------14--------|
|---------------------------------------|------------------------------------|
|---------------------------------------|------------------------------------|
|---------------------------------------|------------------------------------|


   S S S S S S S S S S S S  S S S S    S S S S S S S S S S S S S S S S
|-----------------------------------|----------------------------------|
|-----------------------------------|----------------------------------|
|-----------------------------------|----------------------------------|
|--9p5---9p5---9p5---9p5----9p5-9p5-|--7p4-7p4---------7p4-7p4---------|
|------0-----0-----0-----0----------|----------0-0-0-0---------0-0-0-0-|
|-----------------------------------|----------------------------------|
|
|  S S S S S S S S S S S S  S S S S    S S S S S S S S S S S S S S S S
|-----------------------------------|----------------------------------|
|-----------------------------------|----------------------------------|
|--7p4---7p4---7p4---7p4----7p4-7p4-|--5p2-5p2---------5p2-5p2---------|
|-----------------------------------|----------------------------------|
|------0-----0-----0-----0----------|----------0-0-0-0---------0-0-0-0-|
|-----------------------------------|----------------------------------|
|
|  ~~~                                 ~~~
|  H.                       Q          W
|-----------------------------------|----------------------------------|
|-15-----------------------13-------|----------------------------------|
|-----------------------------------|-14-------------------------------|
|-----------------------------------|----------------------------------|
|-----------------------------------|----------------------------------|
|-----------------------------------|----------------------------------|


   S    S S  S S S  S S S  S S S  S S  S S
|------------------------------------------|
|------------------------------------------|
|------------------------------------------|
|-10p===7---10p7---10p7---10p7---10p7-10p7-|
|---------0------0------0------0-----------|
|------------------------------------------|
|
|  S    S S  S S S  S S S  S S S  S S  S S
|------------------------------------------|
|------------------------------------------|
|--9p===5----9p5----9p5----9p5----9p5--9p5-|
|------------------------------------------|
|---------0------0------0------0-----------|
|------------------------------------------|
|
|  ~~~~~~~~~~~~~~~~~~~~~~~~~~~~~~~~~~~~~~~~~
|  W
|-15b17------------------------------------|
|------------------------------------------|
|------------------------------------------|
|------------------------------------------|
|------------------------------------------|
|------------------------------------------|


   S    S S S S S S S S S S S S S S S
|-------------------------------------|
|-------------------------------------|
|-------------------------------------|
|--9p===6---9p6---9p6---9p6---9p6-9p6-|
|---------0-----0-----0-----0---------|
|-------------------------------------|
|
|  S    S S S S S S S S S S S S S S S
|-------------------------------------|
|-------------------------------------|
|--8p===4---8p4---8p4---8p4---8p4-8p4-|
|-------------------------------------|
|---------0-----0-----0-----0---------|
|-------------------------------------|
|
|~~~~~~~
|  W
|-17b19-------------------------------|
|-------------------------------------|
|-------------------------------------|
|-------------------------------------|
|-------------------------------------|
|-------------------------------------|


   S    S S S S S S S S S S S S S S S    S     S S S S S S S S S S S S S S S
|-------------------------------------|--------------------------------------|
|-------------------------------------|--------------------------------------|
|-------------------------------------|--------------------------------------|
|--9p===5---9p5---9p5---9p5---9p5-9p5-|--7p====4-7p4---------7p4-7p4---------|
|---------0-----0-----0-----0---------|--------------0-0-0-0---------0-0-0-0-|
|-------------------------------------|--------------------------------------|
|
|  S    S S S S S S S S S S S S S S S    S     S S S S S S S S S S S S S S S
|-------------------------------------|--------------------------------------|
|-------------------------------------|--------------------------------------|
|--7p===4---7p4---7p4---7p4---7p4-7p4-|--5p====2-5p2---------5p2-5p2---------|
|-------------------------------------|--------------------------------------|
|---------0-----0-----0-----0---------|--------------0-0-0-0---------0-0-0-0-|
|-------------------------------------|--------------------------------------|
|
|  ~~~~~
|  W                                     W
|-18b20-------------------------------|-22pb24r==============================|
|-------------------------------------|--------------------------------------|
|-------------------------------------|--------------------------------------|
|-------------------------------------|--------------------------------------|
|-------------------------------------|--------------------------------------|
|-------------------------------------|--------------------------------------|


    W               W          W           W
|----------------|-----------|----------|-------|
|----------------|-----------|----------|-------|
|----------------|-----------|----------|-------|
|---9------------|-10--------|-9--------|-10----|
|---7------------|--7--------|-6--------|--6----|
|----------------|-----------|----------|-------|
|
|   W               W          W           W
|----------------|-----------|----------|-------|
|----------------|-----------|----------|-------|
|----------------|-----------|----------|-------|
|---9------------|-10--------|-9--------|-10----|
|---7------------|--7--------|-6--------|--6----|
|----------------|-----------|----------|-------|
|
|  +Q      H.       W          W           W
|-(22)\----------|-----------|----------|-------|
|----------------|-----------|----------|-------|
|----------------|-----------|----------|-------|
|----------------|-----------|----------|-------|
|----------------|-----------|----------|-------|
|----------------|-----------|----------|-------|


  W          W          W          E E E E S S S S E E
|----------|----------|----------|---------------------|
|----------|----------|----------|---------------------|
|----------|----------|----------|---------------------|
|-7--------|-8--------|-7--------|-----2-5-7-5h7p5-----|
|-5--------|-5--------|-4--------|-4-3-------------8-7-|
|----------|----------|----------|---------------------|
|
| W          W          W          E E E E S S S S E E
|----------|----------|----------|---------------------|
|----------|----------|----------|---------------------|
|----------|----------|----------|---------5-4h5p4-2---|
|-7--------|-8--------|-7--------|-----2-5-----------5-|
|-5--------|-5--------|-4--------|-4-3-----------------|
|----------|----------|----------|---------------------|


  E S S S S E S S S S E S S    E S S S S  E S S S S  E S S
|---------------------------|-------------------------------|
|---------------------------|-------------------------------|
|---------------------------|-------------------------------|
|-9---------9---------9-----|-10---------10---------10------|
|---7-7-7-7---7-7-7-7---7-7-|----7-7-7-7----7-7-7-7----7-7--|
|---------------------------|-------------------------------|
|
| E S S S S E S S S S E S S    E S S S S  E S S S S  E S S
|---------------------------|-------------------------------|
|---------------------------|-------------------------------|
|-9---------9---------9-----|--9----------9----------9------|
|---------------------------|-------------------------------|
|---7-7-7-7---7-7-7-7---7-7-|----7-7-7-7----7-7-7-7----7-7--|
|---------------------------|-------------------------------|


  E S S S S E S S S S E S S    E S S S S  E S S S S  E S S
|---------------------------|-------------------------------|
|---------------------------|-------------------------------|
|---------------------------|-------------------------------|
|-9---------9---------9-----|-10---------10---------10------|
|---6-6-6-6---6-6-6-6---6-6-|----6-6-6-6----6-6-6-6----6-6--|
|---------------------------|-------------------------------|
|
| E S S S S E S S S S E S S    E S S S S  E S S S S  E S S
|---------------------------|-------------------------------|
|---------------------------|-------------------------------|
|-8---------8---------8-----|--8----------8----------8------|
|---------------------------|-------------------------------|
|---6-6-6-6---6-6-6-6---6-6-|----6-6-6-6----6-6-6-6----6-6--|
|---------------------------|-------------------------------|


  E S S S S E S S S S E S S   E S S S S E S S S S E S S
|---------------------------|----------------------------|
|---------------------------|----------------------------|
|---------------------------|----------------------------|
|-7---------7---------7-----|-8---------8---------8------|
|---5-5-5-5---5-5-5-5---5-5-|---5-5-5-5---5-5-5-5---5-5--|
|---------------------------|----------------------------|
|
| E S S S S E S S S S E S S   E S S S S E S S S S E S S
|---------------------------|----------------------------|
|---------------------------|----------------------------|
|-7---------7---------7-----|-7---------7---------7------|
|---------------------------|----------------------------|
|---5-5-5-5---5-5-5-5---5-5-|---5-5-5-5---5-5-5-5---5-5--|
|---------------------------|----------------------------|


  E S S S S E S S S S E S S   E S E E E S S S E E
|---------------------------|---------------------|
|---------------------------|---------------------|
|---------------------------|---------------------|
|-7---------7---------7-----|-7---2-5-7-5h7p5-----|
|---4-4-4-4---4-4-4-4---4-4-|---3-------------8-7-|
|---------------------------|---------------------|
|
| E S S S S E S S S S E S S   E S E E E S S S E E
|---------------------------|---------------------|
|---------------------------|---------------------|
|-6---------6---------6-----|-6-------5-4h5p4-2---|
|---------------------------|-----2-5-----------5-|
|---4-4-4-4---4-4-4-4---4-4-|---3-----------------|
|---------------------------|---------------------|


   H     E  E  E  E    H    E  E E  E    H     E  E  E E
|-------------------|-----------------|------------------|
|-------------------|-----------------|------------------|
|-16----14-12-14-12-|-11----9-11-9S14-|-12----11-12-11-9-|
|-------------------|-----------------|------------------|
|-------------------|-----------------|------------------|
|-------------------|-----------------|------------------|
|
|  W                   W                 W
|-------------------|-----------------|------------------|
|-------------------|-----------------|------------------|
|-------------------|-----------------|------------------|
|--5----------------|--4--------------|--9---------------|
|--3----------------|--2--------------|--7---------------|
|-------------------|-----------------|------------------|


  H    E  E  E E    H     E  E  E  E
|----------------|-------------------|
|----------------|-------------------|
|-9----9-11-12-9S|=16----14-12-14-12-|
|----------------|-------------------|
|----------------|-------------------|
|----------------|-------------------|
|
| W                 W
|----------------|-------------------|
|----------------|-------------------|
|----------------|-------------------|
|-7--------------|--5----------------|
|-4--------------|--3----------------|
|----------------|-------------------|


                                      ~~
   H     E  E  Q     +W               W
|-----------------|----------------|---------------|
|-----------------|----------------|---------------|
|-11----12-11-----|----------------|---------------|
|-------------12--|-(12)b14--------|---------------|
|-----------------|----------------|-12------------|
|-----------------|----------------|---------------|
|
|                                             ~
|  W                  W               E E E E H
|-----------------|----------------|---------------|
|-----------------|----------------|---------------|
|-----------------|----------------|--7-6----------|
|--4--------------|---2------------|------5--------|
|--2--------------|---0------------|--------7-5----|
|-----------------|----------------|---------------|


   H     E  E  E  E    H     E  E  E  E    H     E  E  E  E
|-19----17-15-17-15-|-14----12-14-12S17-|-15----14-15-14-12-|
|-------------------|-------------------|-------------------|
|-------------------|-------------------|-------------------|
|-------------------|-------------------|-------------------|
|-------------------|-------------------|-------------------|
|-------------------|-------------------|-------------------|
|
|  W                   W                   W
|-------------------|-------------------|-------------------|
|-------------------|-------------------|-------------------|
|-------------------|-------------------|-------------------|
|--5----------------|--4----------------|--9----------------|
|--3----------------|--2----------------|--7----------------|
|-------------------|-------------------|-------------------|


   H     E  E  E  E    H     E  E  E  E
|-12----12-14-15-12S|=19----17-15-17-15-|
|-------------------|-------------------|
|-------------------|-------------------|
|-------------------|-------------------|
|-------------------|-------------------|
|-------------------|-------------------|
|
|  W                   W
|-------------------|-------------------|
|-------------------|-------------------|
|-------------------|-------------------|
|--7----------------|--5----------------|
|--4----------------|--3----------------|
|-------------------|-------------------|


   H     E  E  Q     +W               W
|-14----15-14-----|----------------|---------------|
|-------------15--|-(15)b17--------|---------------|
|-----------------|----------------|-14------------|
|-----------------|----------------|---------------|
|-----------------|----------------|---------------|
|-----------------|----------------|---------------|
|
|  W                  W               E E E E H
|-----------------|----------------|---------------|
|-----------------|----------------|---------------|
|-----------------|----------------|--7-6----------|
|--4--------------|---2------------|------5--------|
|--2--------------|---0------------|--------7-5----|
|-----------------|----------------|---------------|


    E E   H         S S S S   E H            E S S S S
||--------------------------|---------------------------|
||o-------------------------|---------------------------|
||--------------------------|---------------------------|
||--------------------------|---------------------------|
||o-2---------------2-2-2-2-|-2----------------2-2-2-2--|
||--0---------------0-0-0-0-|-0----------------0-0-0-0--|
|
|   E S S S S E E E S S S S   E S S S S E E  E S S S S
||--------------------------|---------------------------|
||o-------------------------|---------------------------|
||--------------------------|---------------------------|
||----6p5h6p5---5-----------|---6p5h6p5---9-------------|
||o-2---------7---6-2-2-2-2-|-2---------7---10-2-2-2-2--|
||--0---------------0-0-0-0-|-0----------------0-0-0-0--|


  E H           E S S S S   E E S S S S E E S S S S
|-------------------------|--------------------------||
|-------------------------|-------------------------o||
|-------------------------|--------------------------||
|-------------------------|--------------------------||
|-2---------------2-2-2-2-|-2-2-2-2-2-2-2-2-2-2-2-2-o||
|-0---------------0-0-0-0-|-0-0-0-0-0-0-0-0-0-0-0-0--||
|
| E S S S S E E E S S S S   E E S S S S E E S S S S
|-------------------------|--------------------------||
|-------------------------|-------------------------o||
|-------------------------|--------------------------||
|---6p5h6p5---5-----------|--------------------------||
|-2---------7---6-2-2-2-2-|-2-2-2-2-2-2-2-2-2-2-2-2-o||
|-0---------------0-0-0-0-|-0-0-0-0-0-0-0-0-0-0-0-0--||


                               ~~
   Q      Q   E  S  S  E  E    H     E  E  E  E
|-15b17r=17--18-17h18p17-15-|-------------15-------|
|---------------------------|-17----17-18----18b20r|
|---------------------------|----------------------|
|---------------------------|----------------------|
|---------------------------|----------------------|
|---------------------------|----------------------|
|
|  W                           W
|---------------------------|----------------------|
|---------------------------|----------------------|
|---------------------------|----------------------|
|--3------------------------|--5-------------------|
|--1------------------------|--3-------------------|
|---------------------------|----------------------|


   ~~                     ~~
   H     E  S  S  E  E    H     E  E  E     E
|-------17-15h17p15-13-|-------13-------------|
|-20-------------------|-15-------13-13b16r13-|
|----------------------|----------------------|
|----------------------|----------------------|
|----------------------|----------------------|
|----------------------|----------------------|
|
|  W                      W
|----------------------|----------------------|
|----------------------|----------------------|
|----------------------|----------------------|
|--5-------------------|--7-------------------|
|--3-------------------|--5-------------------|
|----------------------|----------------------|


         ~~
   E     H     E  E  E    E  S  S  E  E  E  E  E  E
|-------------10-12-13-|-12-10h12p10----10----------|
|-13b15r15-------------|-------------13----13-10-13-|
|----------------------|----------------------------|
|----------------------|----------------------------|
|----------------------|----------------------------|
|----------------------|----------------------------|
|
|  W                      W
|----------------------|----------------------------|
|----------------------|----------------------------|
|----------------------|----------------------------|
|--3-------------------|--5-------------------------|
|--1-------------------|--3-------------------------|
|----------------------|----------------------------|


   ~~                         ~~~
   W           E  E  E  E  E  Q.
|-----------|-15-14-----------------|
|-10--------|-------15--------------|
|-----------|----------14-12-11-----|
|-----------|-----------------------|
|-----------|-----------------------|
|-----------|-----------------------|
|
|                             ~~~
|  W           E  E  E  E  E  Q.
|-----------|-----------------------|
|-----------|-----------------------|
|-----------|-12-11-----------------|
|--7--------|-------12--------------|
|--5--------|----------12-10--9-----|
|-----------|-----------------------|


                                                                       ~
  S S S S S S S S S S S  S  S S  S S    S  S S  S S  S  S S  S  S S  S Q
|------------------------------------|-12-10-8----8-----------------------|
|-------8-6-5---6-5-----11-10-8------|---------11---11-10-8-11-10-8-------|
|-------------7-----7-5---------10-9-|------------------------------10-9--|
|-5-7-8------------------------------|------------------------------------|
|------------------------------------|------------------------------------|
|------------------------------------|------------------------------------|
|
| W                                     W
|------------------------------------|------------------------------------|
|------------------------------------|------------------------------------|
|------------------------------------|------------------------------------|
|-3----------------------------------|--5---------------------------------|
|-1----------------------------------|--3---------------------------------|
|------------------------------------|------------------------------------|


   S  S  S  S  S  S  S  S  S  S  S  S  S  S  S  S
|----------------------------------------------12---|
|----------------------------------------13-15------|
|----------------------12-------12-14-15------------|
|----12-14-15-12-14-15----14-15---------------------|
|-15------------------------------------------------|
|---------------------------------------------------|
|
|  W
|---------------------------------------------------|
|---------------------------------------------------|
|---------------------------------------------------|
|--5------------------------------------------------|
|--3------------------------------------------------|
|---------------------------------------------------|


   S  S  S  S  S  S  S  S  S  S  S  S  S  S  S  S
|-14-12-------12----------------------------------|
|-------15-13----15-13-11-15-13-11----13-11-------|
|----------------------------------14-------14-12-|
|-------------------------------------------------|
|-------------------------------------------------|
|-------------------------------------------------|
|
|  W
|-------------------------------------------------|
|-------------------------------------------------|
|-------------------------------------------------|
|--7----------------------------------------------|
|--5----------------------------------------------|
|-------------------------------------------------|


         ~~                          ~~~
   E     Q   E  E  E  E  E    Q      H.
|-----------17-20-17-------|---------------|
|-13b15r15-----------20-18-|-17b19--17-----|
|--------------------------|---------------|
|--------------------------|---------------|
|--------------------------|---------------|
|--------------------------|---------------|
|
|  W                          W
|--------------------------|---------------|
|--------------------------|---------------|
|--------------------------|---------------|
|--3-----------------------|--5------------|
|--1-----------------------|--3------------|
|--------------------------|---------------|


   T  T  T  T  T  T  T  T  T  T  T  T  T  T  T  T  T  T  T  T  T  T  T  T  T  T T  T  T T  T  T
|-15p14p12----------17p15p14----------15p14p12--------------------------------------------------|
|----------15p13p12----------17p15p14----------15p13p12-----------------------------------------|
|-------------------------------------------------------14p12p11----------12p11p9---------14p12p|
|----------------------------------------------------------------14p12p10---------12p11p9-------|
|-----------------------------------------------------------------------------------------------|
|-----------------------------------------------------------------------------------------------|
|
|  W
|-----------------------------------------------------------------------------------------------|
|-----------------------------------------------------------------------------------------------|
|-----------------------------------------------------------------------------------------------|
|--7--------------------------------------------------------------------------------------------|
|--5--------------------------------------------------------------------------------------------|
|-----------------------------------------------------------------------------------------------|


                ~~~~~
   T   T  T  T  H..
|-----------------------|
|-----------------------|
|-11--------------------|
|-----14p12p10----------|
|--------------12b14----|
|-----------------------|
|
| +W
|-----------------------|
|-----------------------|
|-----------------------|
|-(7)-------------------|
|-(5)-------------------|
|-----------------------|


    E E   H         S S S S   E H            E S S S S
||--------------------------|---------------------------|
||o-------------------------|---------------------------|
||--------------------------|---------------------------|
||--------------------------|---------------------------|
||o-2---------------2-2-2-2-|-2----------------2-2-2-2--|
||--0---------------0-0-0-0-|-0----------------0-0-0-0--|
|
|   E S S S S E E E S S S S   E S S S S E E  E S S S S
||--------------------------|---------------------------|
||o-------------------------|---------------------------|
||--------------------------|---------------------------|
||----6p5h6p5---5-----------|---6p5h6p5---9-------------|
||o-2---------7---6-2-2-2-2-|-2---------7---10-2-2-2-2--|
||--0---------------0-0-0-0-|-0----------------0-0-0-0--|


  E H           E S S S S   E E S S S S E E S S S S
|-------------------------|--------------------------||
|-------------------------|-------------------------o||
|-------------------------|--------------------------||
|-------------------------|--------------------------||
|-2---------------2-2-2-2-|-2-2-2-2-2-2-2-2-2-2-2-2-o||
|-0---------------0-0-0-0-|-0-0-0-0-0-0-0-0-0-0-0-0--||
|
| E S S S S E E E S S S S   E E S S S S E E S S S S
|-------------------------|--------------------------||
|-------------------------|-------------------------o||
|-------------------------|--------------------------||
|---6p5h6p5---5-----------|--------------------------||
|-2---------7---6-2-2-2-2-|-2-2-2-2-2-2-2-2-2-2-2-2-o||
|-0---------------0-0-0-0-|-0-0-0-0-0-0-0-0-0-0-0-0--||


   E    H               E S S S S    E    E   H              S S S S
|---------------------------------|----------------------------------|
|---------------------------------|----------------------------------|
|---------------------------------|----------------------------------|
|---------------------------------|----------------------------------|
|--2----------------------2-2-2-2-|--2-----------------------2-2-2-2-|
|--0----------------------0-0-0-0-|--0-----------------------0-0-0-0-|
|
|  E    S S S S E  E    E S S S S    E    S S S S E  E     E S S S S
|---------------------------------|----------------------------------|
|---------------------------------|----------------------------------|
|---------------------------------|----------------------------------|
|-------6p5h6p5----5--------------|-------6p5h6p5----9---------------|
|--2------------7-------6-2-2-2-2-|--2------------7-------10-2-2-2-2-|
|--0----------------------0-0-0-0-|--0-----------------------0-0-0-0-|
|
| Gtr VI
|  ~~~~~~~~~~~~~~~~~~~~~~~~~~~~~~~~~~~~~~~~~~~~~~~~~~~~~~~
|  H               H                 H               H
|-12--------------12--------------|-14--------------14---------------|
|-15b17-----------15b17-----------|-17b19-----------17b19------------|
|---------------------------------|----------------------------------|
|---------------------------------|----------------------------------|
|---------------------------------|----------------------------------|
|---------------------------------|----------------------------------|


   E    H               E S S S S    E    E S S S S  E    E S S S S
|---------------------------------|---------------------------------|
|---------------------------------|---------------------------------|
|---------------------------------|---------------------------------|
|---------------------------------|---------------------------------|
|--2----------------------2-2-2-2-|--2----2-2-2-2-2--2----2-2-2-2-2-|
|--0----------------------0-0-0-0-|--0----0-0-0-0-0--0----0-0-0-0-0-|
|
|  E    S S S S E  E    E S S S S    E    E S S S S  E    E S S S S
|---------------------------------|---------------------------------|
|---------------------------------|---------------------------------|
|---------------------------------|---------------------------------|
|-------6p5h6p5----5--------------|---------------------------------|
|--2------------7-------6-2-2-2-2-|--2----2-2-2-2-2--2----2-2-2-2-2-|
|--0----------------------0-0-0-0-|--0----0-0-0-0-0--0----0-0-0-0-0-|
|
|  ~~~~~~~~~~~~~~~~~~~~~~~~~~~~~~~~~~~~~~~~~~~~~~~~~~~~~~~
|  H               H                 H               H
|-15--------------15--------------|-17--------------17--------------|
|-18b20-----------18b20-----------|-20b22-----------20b22-----------|
|---------------------------------|---------------------------------|
|---------------------------------|---------------------------------|
|---------------------------------|---------------------------------|
|---------------------------------|---------------------------------|


   E    H                       E   S     S S S
|-----------------------------------------------|
|-----------------------------------------------|
|-----------------------------------------------|
|-----------------------------------------------|
|--2--------------------------------2-----2-2-2-|
|--0--------------------------------0-----0-0-0-|
|
|  E    S S   S     S E   E     E   S     S S S
|-----------------------------------------------|
|-----------------------------------------------|
|-----------------------------------------------|
|-------6p5h==6p====5-----5---------------------|
|--2------------------7---------6---2-----2-2-2-|
|--0--------------------------------0-----0-0-0-|
|
|  Q         +Q          +Q        +Q
|-22b24r====(22)b24r====(22)b24r==(22)b24r======|
|-----------------------------------------------|
|-----------------------------------------------|
|-----------------------------------------------|
|-----------------------------------------------|
|-----------------------------------------------|


    E     E     H           S S S S
|-----------------------------------|
|-----------------------------------|
|-----------------------------------|
|-----------------------------------|
|---2-----------------------2-2-2-2-|
|---0-----------------------0-0-0-0-|
|
|   E     S S   S  S E E  E S S S S
|-----------------------------------|
|-----------------------------------|
|-----------------------------------|
|---------6p5h==6p=5---9------------|
|---2----------------7---10-2-2-2-2-|
|---0-----------------------0-0-0-0-|
|
|               ~~~~
|  +Q          +H.
|-(22)b26r====(22)------------------|
|-----------------------------------|
|-----------------------------------|
|-----------------------------------|
|-----------------------------------|
|-----------------------------------|


    E     H                       E           S     S     S     S
|--------------------------------------------------------------------|
|--------------------------------------------------------------------|
|--------------------------------------------------------------------|
|--------------------------------------------------------------------|
|---2-----------------------------------------2-----2-----2-----2----|
|---0-----------------------------------------0-----0-----0-----0----|
|
|   E     S  S  S  S  E     E     E           S     S     S     S
|--------------------------------------------------------------------|
|--------------------------------------------------------------------|
|--------------------------------------------------------------------|
|---------6p=5h=6p=5--------5----------------------------------------|
|---2-----------------7-----------6-----------2-----2-----2-----2----|
|---0-----------------------------------------0-----0-----0-----0----|
|
|   S  S  S  S  S  S  S  S  S  S  T  T  T  T  T  T  T  T  T  T  T  T
|-/19-19-19-19-19-19-19-19-19-19-17-15-14-17-15-14-------------------|
|--------------------------------------------------17-15-13-17-15-13-|
|--------------------------------------------------------------------|
|--------------------------------------------------------------------|
|--------------------------------------------------------------------|
|--------------------------------------------------------------------|


   E     E        S     S     S     S     E           E           S     S     S     S
|----------------------------------------------------------------------------------------|
|----------------------------------------------------------------------------------------|
|----------------------------------------------------------------------------------------|
|----------------------------------------------------------------------------------------|
|--2-----2--------2-----2-----2-----2-----2-----------2-----------2-----2-----2-----2----|
|--0-----0--------0-----0-----0-----0-----0-----------0-----------0-----0-----0-----0----|
|
|  E     E        S     S     S     S     E           E           S     S     S     S
|----------------------------------------------------------------------------------------|
|----------------------------------------------------------------------------------------|
|----------------------------------------------------------------------------------------|
|----------------------------------------------------------------------------------------|
|--2-----2--------2-----2-----2-----2-----2-----------2-----------2-----2-----2-----2----|
|--0-----0--------0-----0-----0-----0-----0-----------0-----------0-----0-----0-----0----|
|
|  S  S  S  T  T  T  T  T  T  T  T  T  T  T  T  T  T  T  T  T  T  T  T  T  T  T  S.
|----------------------------------------------------------------------------------------|
|-15-15-15-13-12-15-13-12----------------------------------------------------------------|
|-------------------------14-12-11-14-12-11----------------------------------------------|
|-------------------------------------------14-12-10-14-12-10----------------------------|
|-------------------------------------------------------------14-12-10-14-12-10-14-------|
|----------------------------------------------------------------------------------------|


   W                W
|----------------|-------------------|
|----------------|-------------------|
|----------------|-------------------|
|--5-------------|--4----------------|
|--3-------------|--2----------------|
|----------------|-------------------|
|
| Gtr VI
|  ~~~~             ~~
|  H..         E    H     E  E  E  E
|------------/19-|-17----14-15-17-17-|
|----------------|-------------------|
|----------------|-------------------|
|----------------|-------------------|
|-14-------------|-------------------|
|----------------|-------------------|


   W                    W
|--------------------|-----------------------|
|--------------------|-----------------------|
|--------------------|-----------------------|
|--9-----------------|--7--------------------|
|--7-----------------|--4--------------------|
|--------------------|-----------------------|
|
|           ~~             ~~
|  H        Q   E  E    E  H     E  E  E
|-19b21r===17--15-14-|-14-14----15-17-17b19r=|
|--------------------|-----------------------|
|--------------------|-----------------------|
|--------------------|-----------------------|
|--------------------|-----------------------|
|--------------------|-----------------------|


   W                   W
|-------------------|-------------------------|
|-------------------|-------------------------|
|-------------------|-------------------------|
|--5----------------|--4----------------------|
|--3----------------|--2----------------------|
|-------------------|-------------------------|
|
|  ~~                  ~~
|  H     E  E  E  E    H     E  S  S  S  S  E
|-19----22-19-17-15-|-14----15-14h15p14-------|
|-------------------|-------------------15-15s|
|-------------------|-------------------------|
|-------------------|-------------------------|
|-------------------|-------------------------|
|-------------------|-------------------------|


                                       ~~
   W           E     E     E     E     H
|-----------|------------------------------------------|
|-----------|------------------------------------------|
|-----------|--7-----6---------------------------------|
|--2--------|--------------7---------------------------|
|--0--------|--------------------7-----5---------------|
|-----------|------------------------------------------|
|
|                                                  ~~
|  W           S  S  S  S  S  S  S  S  S  S  S  S  Q
|-----------|-15-12----12------------------------------|
|-17--------|-------15----15-12-15-12----12------------|
|-----------|-------------------------14----14-12------|
|-----------|-------------------------------------14---|
|-----------|------------------------------------------|
|-----------|------------------------------------------|


   H     E  E  E  E    H    E  E E  E    H     E  E  E E
|-------------------|-----------------|------------------|
|-------------------|-----------------|------------------|
|-16----14-12-14-12-|-11----9-11-9S14-|-12----11-12-11-9-|
|-------------------|-----------------|------------------|
|-------------------|-----------------|------------------|
|-------------------|-----------------|------------------|
|
| Gtr II
|  W                   W                 W
|-------------------|-----------------|------------------|
|-------------------|-----------------|------------------|
|-------------------|-----------------|------------------|
|--5----------------|--4--------------|--9---------------|
|--3----------------|--2--------------|--7---------------|
|-------------------|-----------------|------------------|


  H    E  E  E E    H     E  E  E  E
|----------------|-------------------|
|----------------|-------------------|
|-9----9-11-12-9S|=16----14-12-14-12-|
|----------------|-------------------|
|----------------|-------------------|
|----------------|-------------------|
|
| W                 W
|----------------|-------------------|
|----------------|-------------------|
|----------------|-------------------|
|-7--------------|--5----------------|
|-4--------------|--3----------------|
|----------------|-------------------|


   H     E  E  Q     +W               W
|-----------------|----------------|---------------|
|-----------------|----------------|---------------|
|-11----12-11-----|----------------|---------------|
|-------------12--|-(12)b14--------|---------------|
|-----------------|----------------|-12------------|
|-----------------|----------------|---------------|
|
|  W                  W               E E E E H
|-----------------|----------------|---------------|
|-----------------|----------------|---------------|
|-----------------|----------------|--7-6----------|
|--4--------------|---2------------|------5--------|
|--2--------------|---0------------|--------7-5----|
|-----------------|----------------|---------------|


   H     E  E  E  E    H     E  E  E  E    H     E  E  E  E
|-19----17-15-17-15-|-14----12-14-12S17-|-15----14-15-14-12-|
|-------------------|-------------------|-------------------|
|-------------------|-------------------|-------------------|
|-------------------|-------------------|-------------------|
|-------------------|-------------------|-------------------|
|-------------------|-------------------|-------------------|
|
|  W                   W                   W
|-------------------|-------------------|-------------------|
|-------------------|-------------------|-------------------|
|-------------------|-------------------|-------------------|
|--5----------------|--4----------------|--9----------------|
|--3----------------|--2----------------|--7----------------|
|-------------------|-------------------|-------------------|


   H     E  E  E  E    H     E  E  E  E
|-12----12-14-15-12S|=19----17-15-17-15-|
|-------------------|-------------------|
|-------------------|-------------------|
|-------------------|-------------------|
|-------------------|-------------------|
|-------------------|-------------------|
|
|  W                   W
|-------------------|-------------------|
|-------------------|-------------------|
|-------------------|-------------------|
|--7----------------|--5----------------|
|--4----------------|--3----------------|
|-------------------|-------------------|


   H     E  E  Q     +W            W
|-14----15-14-----|-----------|-------------|
|-------------15--|-(15)b17---|-------------|
|-----------------|-----------|---14--------|
|-----------------|-----------|-------------|
|-----------------|-----------|-------------|
|-----------------|-----------|-------------|
|
|  W                  W         E  E E E H
|-----------------|-----------|-------------|
|-----------------|-----------|-------------|
|-----------------|-----------|-7--6--------|
|--4--------------|---2-------|------5------|
|--2--------------|---0-------|--------7-5--|
|-----------------|-----------|-------------|


   S  S  S  S  S  S  S  S  S  S  S  S  S  S  S  S
|----------15----------15----------15----------15-|
|-13-15-16----13-15-16----13-15-16----13-15-16----|
|-------------------------------------------------|
|-------------------------------------------------|
|-------------------------------------------------|
|-------------------------------------------------|
|
|  H                       Q           Q
|-------------------------------------------------|
|-------------------------------------------------|
|-------------------------------------------------|
|-------------------------------------------------|
|--3-----------------------5-----------6----------|
|-------------------------------------------------|


  S  S  S  S S  S  S  S S  S  S  S S  S  S  S
|---------11---------11---------11---------11-|
|-9-11-13----9-11-13----9-11-13----9-11-13----|
|---------------------------------------------|
|---------------------------------------------|
|---------------------------------------------|
|---------------------------------------------|
|
| W
|---------------------------------------------|
|---------------------------------------------|
|---------------------------------------------|
|---------------------------------------------|
|---------------------------------------------|
|-4-------------------------------------------|


   S  S  S  S  S  S  S  S  S  S  S  S  S  S  S  S
|----------13----------13----------13----------13-|
|-12-13-15----12-13-15----12-13-15----12-13-15----|
|-------------------------------------------------|
|-------------------------------------------------|
|-------------------------------------------------|
|-------------------------------------------------|
|
|  H                       Q           Q
|-------------------------------------------------|
|-------------------------------------------------|
|-------------------------------------------------|
|-------------------------------------------------|
|--2-----------------------3-----------5----------|
|-------------------------------------------------|


   S  S  S   S  S  S  S  S  S  S  S  S  S  S  S  S
|-----------15----------15----------15----------15----|
|-13-15-16-----13-15-16----13-15-16----13-15-16-------|
|-----------------------------------------------------|
|-----------------------------------------------------|
|-----------------------------------------------------|
|-----------------------------------------------------|
|
|  S  S  H.                                         E
|-----------------------------------------------------|
|-----------------------------------------------------|
|-----------------------------------------------------|
|---------------------------------------------------5-|
|--6--5--3--------------------------------------------|
|-----------------------------------------------------|


   S  S  S  S  S  S  S  S  S  S  S  S  S  S  S  S
|----------15----------15----------15----------15-|
|-13-15-16----13-15-16----13-15-16----13-15-16----|
|-------------------------------------------------|
|-------------------------------------------------|
|-------------------------------------------------|
|-------------------------------------------------|
|
|  H                       Q           Q
|-------------------------------------------------|
|-------------------------------------------------|
|--5-----------------------7-----------8----------|
|-------------------------------------------------|
|-------------------------------------------------|
|-------------------------------------------------|


  S  S  S    S S  S  S  S S  S  S  S S  S  S  S
|-----------11---------11---------11---------11---|
|-9-11-13------9-11-13----9-11-13----9-11-13------|
|-------------------------------------------------|
|-------------------------------------------------|
|-------------------------------------------------|
|-------------------------------------------------|
|
| S  S  H..
|-------------------------------------------------|
|-9p=7h=9-----------------------------------------|
|-------------------------------------------------|
|-------------------------------------------------|
|-------------------------------------------------|
|-------------------------------------------------|


                          Q=80
   S  S  S  S  S  S  S  S  S  S  S  S  S  S  S  S
|----------13----------13----------13----------13-|
|-12-13-15----12-13-15----12-13-15----12-13-15----|
|-------------------------------------------------|
|-------------------------------------------------|
|-------------------------------------------------|
|-------------------------------------------------|
|
|  H                       Q           Q
|-------------------------------------------------|
|-------------------------------------------------|
|--4-----------------------5-----------7----------|
|-------------------------------------------------|
|-------------------------------------------------|
|-------------------------------------------------|


   E  E  E  E  S  S  S  S  Q          H      H
|-11-13-11-13-11-13-11-13-11tr13--|-[11]\--------*|
|---------------------------------|--------------*|
|---------------------------------|--------------*|
|---------------------------------|--------------*|
|---------------------------------|--------------*|
|---------------------------------|--------------*|
|
|  E  E  E  E  S  S  S  S  Q          H      H
|---------------------------------|--------------*|
|---------------------------------|--------------*|
|--5--7--5--7--5--7--5--7--5tr7---|--[5]\--------*|
|---------------------------------|--------------*|
|---------------------------------|--------------*|
|---------------------------------|--------------*|



Duration Legend
---------------
W - whole; H - half; Q - quarter; E - 8th; S - 16th; T - 32nd; X - 64th; a - acciaccatura
+ - note tied to previous; . - note dotted; .. - note double dotted
Uncapitalized letters represent notes that are staccato (1/2 duration)
Irregular groupings are notated above the duration line
Duration letters will always appear directly above the note/fret number it represents the
duration for.  Duration letters with no fret number below them represent rests.  Multi-
bar rests are notated in the form Wxn, where n is the number of bars to rest for.  Low
melody durations appear below the staff

Tablature Legend
----------------
 h   - hammer-on
 p   - pull-off
 b   - bend
 pb  - pre-bend
 r   - bend release (if no number after the r, then release immediately)
 /\  - slide into or out of (from/to "nowhere")
 s   - legato slide
 S   - shift slide
 - natural harmonic
[n]  - artificial harmonic
n(n) - tapped harmonic
 ~   - vibrato
 tr  - trill
 T   - tap
 TP  - trem. picking
 PM  - palm muting
\n/  - tremolo bar dip; n = amount to dip
 \n  - tremolo bar down
 n/  - tremolo bar up
/n\  - tremolo bar inverted dip
 =   - hold bend; also acts as connecting device for hammers/pulls
 <> - volume swell (louder/softer)
 x   - on rhythm slash represents muted slash
 o   - on rhythm slash represents single note slash

Misc Legend
-----------
 |  - bar
||  - double bar
||o - repeat start
o|| - repeat end
*|  - double bar (ending)
 :  - bar (freetime)
 $  - Segno
 &  - Coda
Tempo markers -  = BPM(8/16=s8/s16), where s8 = swing 8ths, s16 = swing 16ths

Tap to rate this tab
# A B C D E F G H I J K L M N O P Q R S T U V W X Y Z