Song name
# A B C D E F G H I J K L M N O P Q R S T U V W X Y Z

Architecture In Helsinki - Desert Island tab

so easy that I was bored so I created a small Tab, especially so because I like 
this song and it has no idea Tabs and even the Chords ;d

PART 1
Guitar 1 
                         
eb|-------------------------------------------------------------------|
Bb|-------------------------------------------------------------------|
Gb|-9...--7---------------------------------7---9^--7^----------------|x2
Db|------------10--9--7--7x2--9--10 -> 10-----------------------------|
Ab|-------------------------------------------------------------------|
Eb|-------------------------------------------------------------------|


PART 2
Guitar 1
  
eb|-------------------------------------------------------------------|
Bb|--8...--10--8-------------------8--7-------------------------------|
Gb|-----------------10--9--7-(7)----------10x2-------------9^--7^-----|x2
Db|----------------------------------------------10--12---------------|
Ab|-------------------------------------------------------------------|
Eb|-------------------------------------------------------------------|


Guitar 1

eb|--7...--9------4-------9---------4---------------------------------|
Bb|-----------7-------7--------7---------7----------------------------|
Gb|-------------------------------------------------------------------|x3
Db|-------------------------------------------------------------------|
Ab|-------------------------------------------------------------------|
Eb|-------------------------------------------------------------------|

by: Szymon Kwiatkowski 
Tap to rate this tab
# A B C D E F G H I J K L M N O P Q R S T U V W X Y Z