Song name
# A B C D E F G H I J K L M N O P Q R S T U V W X Y Z

Arco - Flight tab

(let notes ring throughout song)

Intro/Verse:
E||-----------4-----------0--|-----------4--------0-----|
B||--------4-----------4-----|--------4-----4--------4--|
G||-----4-----------4--------|-----4-----------4--------|
D||--2-----------2-----------|--2-----------------------|
A||--------------------------|--------------------------|
E||--------------------------|--------------------------|


-----------4-----------0--|-----------4--------0-----|
--------4-----------4-----|--------4-----4--------4--|
-----4-----------4--------|-----4-----------4--------|
--2-----------2-----------|--2-----------------------|
--------------------------|--------------------------|
--------------------------|--------------------------|

   
-----------2-----------0--|-----------2--------0-----|
--------------------------|--------------4--------4--|
--------1-----------1-----|--------1--------1--------|
-----2-----------2--------|-----2--------------------|
--0-----------0-----------|--0-----------------------|
--------------------------|--------------------------| x2



Chorus(ish Part) (0:45):
E||-----------0--------------|-----------0--------------|
B||-----------------------4--|-----------------4--------|
G||--------4-----------4-----|--------4-----------------|
D||-----2-----------2--------|-----2--------------------|
A||--4-----------4-----------|--4-----------------------|
E||--------------------------|--------------------------|


-----------0--------------|--------0-----------------|
-----------------------3--|--------------3--------3--|
--------0-----------0-----|-----------------0--------|
-----2-----------2--------|-----2-----2--------2-----|
--3-----------3-----------|--3-----------------------|
--------------------------|--------------------------|


--------------------------|--------------------------|
-----------3--------------|--------3--------------3--|
-----------------------4--|--------------4-----------|
--------5-----------5-----|-----------------5--------|
-----5-----------5--------|-----5-----5--------5-----|
--3-----------3-----------|--3-----------------------|


-----------0--------------|--------0-----------------|
-----------------------0--|--------------------------|
--------4-----------2-----|--------------2-----------|
-----4-----------4--------|-----4-----4-----4-----4--|
--2-----------2-----------|--2-----------------2-----|
--------------------------|--------------------------|

Tap to rate this tab
# A B C D E F G H I J K L M N O P Q R S T U V W X Y Z