Song name
# A B C D E F G H I J K L M N O P Q R S T U V W X Y Z

Arctic Monkeys - Red Right Hand tab

-------------------------------------------------------------------------------
			     Red Right Hand – Arctic Monkeys
-------------------------------------------------------------------------------
Tabbed by: Joe McArdle
Email:

Tuning: Standard

Intro 

e|---------------------------------------------------------------------------|
B|---------------------------------------------------------------------------|
G|---------------------------------------------------------------------------|
D|---------------------------------------------------------------------------|
A|--2--2-2-5--5-5-5----------------------------------------------------------|x 4
E|---------------------------------------------------------------------------|

Verse 

e|---------------------------------------------------------------------------|
B|---------------------------------------------------------------------------|
G|---------------------------------------------------------------------------|
D|---------------------------------------------------------------------------|
A|--2--2-2-5--5-5-5----------------------------------------------------------|x 8
E|---------------------------------------------------------------------------|

e|---------------------------------------------------------------------------|
B|---------------------------------------------------------------------------|
G|----------5-4-0--------5-4-0--------5-4-0----------------------------------|
D|--2--2-2--------2--2-2-------2--2-2----------------------------------------|
A|---------------------------------------------------------------------------|
E|---------------------------------------------------------------------------|

Then back to

e|---------------------------------------------------------------------------|
B|---------------------------------------------------------------------------|
G|---------------------------------------------------------------------------|
D|---------------------------------------------------------------------------|
A|--2--2-2-5--5-5-5----------------------------------------------------------|x 4
E|---------------------------------------------------------------------------|

Chorus

e|---------------------------------------------------------------------------|
B|---------------------------------------------------------------------------|
G|---------------------------------------------------------------------------|
D|---------------------------------------------------------------------------|
A|-4-4-4-4-4-4-4-4-4-4-4-4-4-4-4-4---2--2--2--2--2-2-------------------------|
E|---------------------------------------------------------------------------|

Verse 2


e|---------------------------------------------------------------------------|
B|---------------------------------------------------------------------------|
G|---------------------------------------------------------------------------|
D|---------------------------------------------------------------------------|
A|--2--2-2-5--5-5-5----------------------------------------------------------|x 12
E|---------------------------------------------------------------------------|

e|---------------------------------------------------------------------------|
B|---------------------------------------------------------------------------|
G|----------5-4-0--------5-4-0--------5-4-0----------------------------------|
D|--2--2-2--------2--2-2-------2--2-2----------------------------------------|
A|---------------------------------------------------------------------------|
E|---------------------------------------------------------------------------|

e|---------------------------------------------------------------------------|
B|---------------------------------------------------------------------------|
G|---------------------------------------------------------------------------|
D|---------------------------------------------------------------------------|
A|--2--2-2-5--5-5-5----------------------------------------------------------|x 4
E|---------------------------------------------------------------------------|



Chorus 2

e|---------------------------------------------------------------------------|
B|---------------------------------------------------------------------------|
G|---------------------------------------------------------------------------|
D|---------------------------------------------------------------------------|
A|-4-4-4-4-4-4-4-4-4-4-4-4-4-4-4-4---2--2--2--2--2-2-------------------------|
E|---------------------------------------------------------------------------|

Verse 3


e|---------------------------------------------------------------------------|
B|---------------------------------------------------------------------------|
G|---------------------------------------------------------------------------|
D|---------------------------------------------------------------------------|
A|--2--2-2-5--5-5-5----------------------------------------------------------|x 12
E|---------------------------------------------------------------------------|

e|---------------------------------------------------------------------------|
B|---------------------------------------------------------------------------|
G|----------5-4-0--------5-4-0--------5-4-0----------------------------------|
D|--2--2-2--------2--2-2-------2--2-2----------------------------------------|
A|---------------------------------------------------------------------------|
E|---------------------------------------------------------------------------|

e|---------------------------------------------------------------------------|
B|---------------------------------------------------------------------------|
G|---------------------------------------------------------------------------|
D|---------------------------------------------------------------------------|
A|--2--2-2-5--5-5-5----------------------------------------------------------|x 4
E|---------------------------------------------------------------------------|

Chorus 3

e|---------------------------------------------------------------------------|
B|---------------------------------------------------------------------------|
G|---------------------------------------------------------------------------|
D|---------------------------------------------------------------------------|
A|-4-4-4-4-4-4-4-4-4-4-4-4-4-4-4-4---2---------------------------------------|
E|---------------------------------------------------------------------------|


Pause

Verse 4 (no singing)

e|---------------------------------------------------------------------------|
B|---------------------------------------------------------------------------|
G|---------------------------------------------------------------------------|
D|---------------------------------------------------------------------------|
A|--2--2-2-5--5-5-5----------------------------------------------------------|x 12
E|---------------------------------------------------------------------------|

e|---------------------------------------------------------------------------|
B|---------------------------------------------------------------------------|
G|----------5-4-0--------5-4-0--------5-4-0----------------------------------|
D|--2--2-2--------2--2-2-------2--2-2----------------------------------------|
A|---------------------------------------------------------------------------|
E|---------------------------------------------------------------------------|

e|---------------------------------------------------------------------------|
B|---------------------------------------------------------------------------|
G|---------------------------------------------------------------------------|
D|---------------------------------------------------------------------------|
A|--2--2-2-5--5-5-5----------------------------------------------------------|x 4
E|---------------------------------------------------------------------------|

Chorus 4 (no singing)


e|---------------------------------------------------------------------------|
B|---------------------------------------------------------------------------|
G|---------------------------------------------------------------------------|
D|---------------------------------------------------------------------------|
A|-4-4-4-4-4-4-4-4-4-4-4-4-4-4-4-4---2--2--2--2--2-2-------------------------|
E|---------------------------------------------------------------------------|


Verse 5 (no singing)

e|---------------------------------------------------------------------------|
B|---------------------------------------------------------------------------|
G|---------------------------------------------------------------------------|
D|---------------------------------------------------------------------------|
A|--2--2-2-5--5-5-5----------------------------------------------------------|x 4
E|---------------------------------------------------------------------------|


Bridge 

e|---------------------------------------------------------------------------|
B|---------------------------------------------------------------------------|
G|-3--3---4~-----------------------------------------------------------------|
D|-4--4---5~-----------------------------------------------------------------|
A|-4--4---5~-----------------------------------------------------------------|x 4
E|-2--2---3~-----------------------------------------------------------------|

Interlude (no guitar until Alex Turner sings “He’s a ghost”)

e|---------------------------------------------------------------------------|
B|---------------------------------------------------------------------------|
G|-4---4---4-----4~----------------------------------------------------------|
D|-4---4---4-----4~----------------------------------------------------------|
A|-2---2---2-----2~----------------------------------------------------------|
E|---------------------------------------------------------------------------|

Chorus 5

e|---------------------------------------------------------------------------|
B|---------------------------------------------------------------------------|
G|---------------------------------------------------------------------------|
D|--4---------2--------------------------------------------------------------|
A|--4—x 16----2—x 6----------------------------------------------------------|
E|--2---------0--------------------------------------------------------------|

Outro 

e|---------------------------------------------------------------------------|
B|---------------------------------------------------------------------------|
G|-3--3---4~-----------------------------------------------------------------|
D|-4--4---5~-----------------------------------------------------------------|
A|-4--4---5~-----------------------------------------------------------------|x 4
E|-2--2---3~-----------------------------------------------------------------|



| /  slide up
| \  slide down
| h  hammer-on
| p  pull-off
| ~  vibrato
| +  harmonic
| x  Mute note
===============================================================================
Tap to rate this tab
 
# A B C D E F G H I J K L M N O P Q R S T U V W X Y Z