Song name
# A B C D E F G H I J K L M N O P Q R S T U V W X Y Z

Arctic Monkeys - Red Right Hand tab

Red Right Hand
tabbed by joetp_10@msn.com

Intro
E|----------|
B|----------|
G|----------|
D|----------|
A|--2----5--|
E|----------| x4

Verse
E|----------|
B|----------|
G|----------|
D|----------|
A|--2----5--|
E|----------| x8

E|---------------|
B|---------------|
G|---------------|
D|-----9--7------|
A|--7--------10--|
E|---------------| x3

E|----------------|
B|----------------|
G|----------------|
D|----------------|
A|--7--9--10--12--|
E|----------------|

Chorus
F#  E Power Chords

Repeat the above for Verse 2 and second chorus

The ‘you haven’t got no money’ bit….
E|----------|
B|----------|
G|----------|
D|----------|
A|--2----5--|
E|----------| I couldn’t count how many times

E|---------------|
B|---------------|
G|---------------|
D|-----9--7------|
A|--7--------10--|
E|---------------| x3

E|----------------|
B|----------------|
G|----------------|
D|----------------|
A|--7--9--10--12--|
E|----------------|
(Same as verse)

Chorus
F#  E

Organ Solo
Play intro, verse and chorus again twice

The two chords that separate the solo (and end the song)
B   G

Just the Bass plays the verse again. Guitar joins in just before the chorus. Chorus 
again.
B   G  played a few times to end the song.
This is as close as I could get it. Enjoy.
Tap to rate this tab
 
# A B C D E F G H I J K L M N O P Q R S T U V W X Y Z