Song name
# A B C D E F G H I J K L M N O P Q R S T U V W X Y Z

Arctic Monkeys - Catapult tab

-------------------------------------------------------------------------------
		Arctic Monkeys - Cornerstone B-Side - Catapult
-------------------------------------------------------------------------------

v - downstrum
^ - upstrum

Intro goes something like this:

e|--3-3--x-3-3-3-------------------------------------------------------------|
B|--4-4--x-3-3-3-------------------------------------------------------------|
G|--5-5--x-5-5-5-------------------------------------------------------------|
D|--5-5--x-5-5-5-------------------------------------------------------------|
A|--3-3--x-3-3-3-------------------------------------------------------------|
E|--3-3--x-3-3-3-------------------------------------------------------------|
    v v  v ^ v ^
Tap to rate this tab
# A B C D E F G H I J K L M N O P Q R S T U V W X Y Z