Arctic Monkeys - Dancing Shoes tab

this is my first tab, so it  may not be 100% :)

verse 1:
e --------------------------------------------------|
b --------------------------------------------------|
g --------------------------------------------------|
d ------4----------4---------------------2-2-2-4-2--|
a --------4-2--------4-2-----4-4-4-6-4--------------|
e --4-4--------4-4----------------------------------|
  get on your dancing shoes   theres one thing on your mind

e --------------------------------------------------|
b --------------------------------------------------|
g --------------------------------------------------|
d ------4----------4---------------------2-2-2-4-2--|
a --------4-2--------4-2-----4-4-4-6-4--------------|
e --4-4--------4-4----------------------------------|
hoping there looking for you   sure you'll be rumaging through

e --------------------------------------------------|
b --------------------------------------------------|
g --------------------------------------------------|
d ------4----------4---------------------2-2-2-4-2--|
a --------4-2--------4-2-----4-4-4-6-4--------------|
e --4-4--------4-4----------------------------------|
well the s**t shock horror      you've seen your future bride

e --------------------------------------------------|
b --------------------------------------------------|
g --------------------------------------------------|
d ------4----------4---------------------2-2-2-4-2--|
a --------4-2--------4-2-----4-4-4-6-4--------------|
e --4-4--------4-4----------------------------------|
but its also obserde          for you to say the first word so your waiting
                                    and waiting  oh..



chorus:
e-------------------------------------------------|
b-------------------------------------------------|
g-------------------------------------------------|
d---6--4--11--9--6-------6-6-6-4-6----------------|
a---6--4--11--9--6-------6-6-6-4-6----------------|
e---4--2--9---7--4-------4-4-4-2-4----------------|
                     the only reason that you came



e-------------------------------------------------|
b-------------------------------------------------|
g-------------------------------------------------|
d---6--4--11--9--6-------6-6-6-4-6----------------|
a---6--4--11--9--6-------6-6-6-4-6----------------|
e---4--2--9---7--4-------4-4-4-2-4----------------|
                        so what you scared for?


e-------------------------------------------------|
b-------------------------------------------------|
g-------------------------------------------------|
d---6--4--11--9--6-------6-6-6-4-6----------------|
a---6--4--11--9--6-------6-6-6-4-6----------------|
e---4--2--9---7--4-------4-4-4-2-4----------------|
                        well don't you always do the same

e-------------------------------------------------|
b-------------------------------------------------|
g-------------------------------------------------|
d---6--4--11--9--6-------6-6-6-4-6----------------|
a---6--4--11--9--6-------6-6-6-4-6----------------|
e---4--2--9---7--4-------4-4-4-2-4----------------|
                        it's what your there for
don't you know

verse2:


e --------------------------------------------------------|
b --------------------------------------------------------|
g --------------------------------------------------------|
d ---------------------------------------------2-2-2-4-2--|
a ---------------------------------4-4-4-6-4--------------|
e --4-4-4-2-4-----4-4-4-2-4-------------------------------|
   the lights are flashing        he's down here tonight



e --------------------------------------------------------|
b --------------------------------------------------------|
g --------------------------------------------------------|
d ---------------------------------------------2-2-2-4-2--|
a ---------------------------------4-4-4-6-4--------------|
e --4-4-4-2-4-----4-4-4-2-4-------------------------------|
  and some might exchange a glance    but keep pretending to dance




e --------------------------------------------------|
b --------------------------------------------------|
g --------------------------------------------------|
d ------4----------4---------------------2-2-2-4-2--|
a --------4-2--------4-2-----4-4-4-6-4--------------|
e --4-4--------4-4----------------------------------|
  dont act like its not happening   as if it's inpolite


e --------------------------------------------------------|
b --------------------------------------------------------|
g --------------------------------------------------------|
d ---------------------------------------------2-2-2-4-2--|
a ---------------------------------4-4-4-6-4--------------|
e --4-4-4-2-4-----4-4-4-2-4-------------------------------|
  don't go and mention your name   instead you'll just do the same
                                   as they all do and hope for the best

e-------------------------------------------------|
b-------------------------------------------------|
g-------------------------------------------------|
d---6--4--11--9--6-------6-6-6-4-6----------------|
a---6--4--11--9--6-------6-6-6-4-6----------------|
e---4--2--9---7--4-------4-4-4-2-4----------------|
                     the only reason that you came



e-------------------------------------------------|
b-------------------------------------------------|
g-------------------------------------------------|
d---6--4--11--9--6-------6-6-6-4-6----------------|
a---6--4--11--9--6-------6-6-6-4-6----------------|
e---4--2--9---7--4-------4-4-4-2-4----------------|
                        so what you scared for?


e-------------------------------------------------|
b-------------------------------------------------|
g-------------------------------------------------|
d---6--4--11--9--6-------6-6-6-4-6----------------|
a---6--4--11--9--6-------6-6-6-4-6----------------|
e---4--2--9---7--4-------4-4-4-2-4----------------|
                        well don't you always do the same

e-------------------------------------------------|
b-------------------------------------------------|
g-------------------------------------------------|
d---6--4--11--9--6-------6-6-6-4-6----------------|
a---6--4--11--9--6-------6-6-6-4-6----------------|
e---4--2--9---7--4-------4-4-4-2-4----------------|
                        it's what your there for   but no..

solo:(it's only the backing i havent worked the rest out yet)
e-------------------------------------------|
B-------------------------------------------|
G-----------------6666666699999999----------|
D-66666666666666666666666699999999----------| x4
A-66666666666666664444444477777777----------|
E-4444444444444444--------------------------|

VERSE 3:

e --------------------------------------------------|
b --------------------------------------------------|
g --------------------------------------------------|
d ------4----------4---------------------2-2-2-4-2--|
a --------4-2--------4-2-----4-4-4-6-4--------------|
e --4-4--------4-4----------------------------------|
  get on your dancing shoes   you sexy little swine
e --------------------------------------------------|
b --------------------------------------------------|
g --------------------------------------------------|
d ------4----------4---------------------2-2-2-4-2--|
a --------4-2--------4-2-----4-4-4-6-4--------------|
e --4-4--------4-4----------------------------------|
hoping there looking for you   sure you'll be rumaging through

e--------------------------------------------------------|
B--------------------------------------------------------|
G---------------------------------6-6-6-6---9-9-9-9------|
D-6-6-6-6-6-6-6-6-----------------6-6-6-6---9-9-9-9------|
A-6-6-6-6-6-6-6-6-----------------4-4-4-4---7-7-7-7------|
E-4-4-4-4-4-4-4-4----------------------------------------|
 oh well the s**t shock horror     you've seen your future bride


e--------------------------------------------------------|
B--------------------------------------------------------|
G---------------------------------6-6-6-6---9-9-9-9------|
D-6-6-6-6-6-6-6-6-----------------6-6-6-6---9-9-9-9------|
A-6-6-6-6-6-6-6-6-----------------4-4-4-4---7-7-7-7------|
E-4-4-4-4-4-4-4-4----------------------------------------|
  well its also obserde        for you to say the first word and your waiting


outro:
e--------------------------------|
b--------------------------------|
g--------------------------------|x4
d-------6-6-6-4-6----------------|
a-------6-6-6-4-6----------------|
e-------4-4-4-2-4----------------|
Tap to rate this tab
 
# A B C D E F G H I J K L M N O P Q R S T U V W X Y Z